  0
SECTION
  2
HEADER
  9
$ACADVER
  1
AC1009
  9
$INSBASE
 10
0.0
 20
0.0
 30
0.0
  9
$EXTMIN
 10
15.0
 20
8.9999999999999982
 30
-0.00000001
  9
$EXTMAX
 10
199.62847941309681
 20
287.99999999999989
 30
0.00000001
  9
$LIMMIN
 10
0.0
 20
0.0
  9
$LIMMAX
 10
8.2699999999999996
 20
11.695
  9
$ORTHOMODE
 70
     0
  9
$REGENMODE
 70
     1
  9
$FILLMODE
 70
     1
  9
$QTEXTMODE
 70
     0
  9
$MIRRTEXT
 70
     0
  9
$DRAGMODE
 70
     2
  9
$LTSCALE
 40
1.0
  9
$OSMODE
 70
     0
  9
$ATTMODE
 70
     1
  9
$TEXTSIZE
 40
3.0
  9
$TRACEWID
 40
0.05
  9
$TEXTSTYLE
  7
STANDARD
  9
$CLAYER
  8
0
  9
$CELTYPE
  6
BYLAYER
  9
$CECOLOR
 62
     7
  9
$DIMSCALE
 40
1.0
  9
$DIMASZ
 40
0.18
  9
$DIMEXO
 40
0.0625
  9
$DIMDLI
 40
0.38
  9
$DIMRND
 40
0.0
  9
$DIMDLE
 40
0.0
  9
$DIMEXE
 40
0.18
  9
$DIMTP
 40
0.0
  9
$DIMTM
 40
0.0
  9
$DIMTXT
 40
0.1574803149606299
  9
$DIMCEN
 40
0.09
  9
$DIMTSZ
 40
0.0
  9
$DIMTOL
 70
     0
  9
$DIMLIM
 70
     0
  9
$DIMTIH
 70
     1
  9
$DIMTOH
 70
     1
  9
$DIMSE1
 70
     0
  9
$DIMSE2
 70
     0
  9
$DIMTAD
 70
     0
  9
$DIMZIN
 70
     0
  9
$DIMBLK
  1

  9
$DIMASO
 70
     1
  9
$DIMSHO
 70
     1
  9
$DIMPOST
  1

  9
$DIMAPOST
  1

  9
$DIMALT
 70
     0
  9
$DIMALTD
 70
     2
  9
$DIMALTF
 40
25.399999999999999
  9
$DIMLFAC
 40
1.0
  9
$DIMTOFL
 70
     0
  9
$DIMTVP
 40
0.0
  9
$DIMTIX
 70
     0
  9
$DIMSOXD
 70
     0
  9
$DIMSAH
 70
     0
  9
$DIMBLK1
  1

  9
$DIMBLK2
  1

  9
$DIMSTYLE
  2
STANDARD
  9
$DIMCLRD
 70
     0
  9
$DIMCLRE
 70
     0
  9
$DIMCLRT
 70
     0
  9
$DIMTFAC
 40
1.0
  9
$DIMGAP
 40
0.09
  9
$LUNITS
 70
     2
  9
$LUPREC
 70
     2
  9
$SKETCHINC
 40
0.1
  9
$FILLETRAD
 40
4.9999999999999991
  9
$AUNITS
 70
     0
  9
$AUPREC
 70
     3
  9
$MENU
  1
.
  9
$ELEVATION
 40
0.0
  9
$PELEVATION
 40
0.0
  9
$THICKNESS
 40
0.0
  9
$LIMCHECK
 70
     0
  9
$BLIPMODE
 70
     0
  9
$CHAMFERA
 40
4.9999999999999991
  9
$CHAMFERB
 40
4.9999999999999991
  9
$SKPOLY
 70
     0
  9
$TDCREATE
 40
2460229.5640979172
  9
$TDUPDATE
 40
2460229.5640979172
  9
$TDINDWG
 40
0.0007852315
  9
$TDUSRTIMER
 40
0.0007852315
  9
$USRTIMER
 70
     1
  9
$ANGBASE
 50
0.0
  9
$ANGDIR
 70
     0
  9
$PDMODE
 70
     0
  9
$PDSIZE
 40
0.0
  9
$PLINEWID
 40
0.0
  9
$COORDS
 70
     0
  9
$SPLFRAME
 70
     0
  9
$SPLINETYPE
 70
     6
  9
$SPLINESEGS
 70
     8
  9
$ATTDIA
 70
     0
  9
$ATTREQ
 70
     1
  9
$HANDLING
 70
     1
  9
$HANDSEED
  5
467
  9
$SURFTAB1
 70
     6
  9
$SURFTAB2
 70
     6
  9
$SURFTYPE
 70
     6
  9
$SURFU
 70
     6
  9
$SURFV
 70
     6
  9
$UCSNAME
  2

  9
$UCSORG
 10
0.0
 20
0.0
 30
0.0
  9
$UCSXDIR
 10
1.0
 20
0.0
 30
0.0
  9
$UCSYDIR
 10
0.0
 20
1.0
 30
0.0
  9
$PUCSNAME
  2

  9
$PUCSORG
 10
0.0
 20
0.0
 30
0.0
  9
$PUCSXDIR
 10
1.0
 20
0.0
 30
0.0
  9
$PUCSYDIR
 10
0.0
 20
1.0
 30
0.0
  9
$USERI1
 70
     0
  9
$USERI2
 70
     0
  9
$USERI3
 70
     0
  9
$USERI4
 70
     0
  9
$USERI5
 70
     0
  9
$USERR1
 40
0.0
  9
$USERR2
 40
0.0
  9
$USERR3
 40
0.0
  9
$USERR4
 40
0.0
  9
$USERR5
 40
0.0
  9
$WORLDVIEW
 70
     1
  9
$SHADEDGE
 70
     3
  9
$SHADEDIF
 70
    70
  9
$TILEMODE
 70
     1
  9
$MAXACTVP
 70
    64
  9
$PLIMCHECK
 70
     0
  9
$PEXTMIN
 10
1.0000000000000000E+020
 20
1.0000000000000000E+020
 30
1.0000000000000000E+020
  9
$PEXTMAX
 10
-1.0000000000000000E+020
 20
-1.0000000000000000E+020
 30
-1.0000000000000000E+020
  9
$PLIMMIN
 10
0.0
 20
0.0
  9
$PLIMMAX
 10
12.0
 20
9.0
  9
$UNITMODE
 70
     0
  9
$VISRETAIN
 70
     1
  9
$PLINEGEN
 70
     0
  9
$PSLTSCALE
 70
     1
  0
ENDSEC
  0
SECTION
  2
TABLES
  0
TABLE
  2
VPORT
 70
     1
  0
VPORT
  2
*ACTIVE
 70
     0
 10
0.0
 20
0.0
 11
1.0
 21
1.0
 12
99.814239706548392
 22
143.99999999999989
 13
0.0
 23
0.0
 14
1.0
 24
1.0
 15
0.0
 25
0.0
 16
0.0
 26
0.0
 36
1.0
 17
0.0
 27
0.0
 37
0.0
 40
287.99999999999989
 41
0.6931544424065863
 42
50.0
 43
0.0
 44
0.0
 50
0.0
 51
0.0
 71
     0
 72
   100
 73
     1
 74
     1
 75
     0
 76
     0
 77
     0
 78
     0
  0
ENDTAB
  0
TABLE
  2
LTYPE
 70
    40
  0
LTYPE
  2
CONTINUOUS
 70
     0
  3
Solid line
 72
    65
 73
     0
 40
0.0
  0
LTYPE
  2
HIDDEN
 70
     0
  3
_ _ _ _ _ _ _ _ _ _ _ _ _ _ 
 72
    65
 73
     2
 40
9.5249999999999986
 49
6.3499999999999988
 49
-3.1749999999999989
  0
LTYPE
  2
DASHED
 70
     0
  3
__ __ __ __ __ __ __ __ __ 
 72
    65
 73
     2
 40
19.050000000000001
 49
12.699999999999999
 49
-6.3499999999999988
  0
LTYPE
  2
CENTER
 70
     0
  3
____ _ ____ _ ____ _ ____ _ 
 72
    65
 73
     4
 40
50.799999999999997
 49
31.75
 49
-6.3499999999999988
 49
6.3499999999999988
 49
-6.3499999999999988
  0
LTYPE
  2
PHANTOM
 70
     0
  3
_____ _ _ _____ _ _ _____ _ _ 
 72
    65
 73
     6
 40
63.500000000000007
 49
31.75
 49
-6.3499999999999988
 49
6.3499999999999988
 49
-6.3499999999999988
 49
6.3499999999999988
 49
-6.3499999999999988
  0
LTYPE
  2
DOT
 70
     0
  3
...........................
 72
    65
 73
     2
 40
6.3499999999999988
 49
0.0
 49
-6.3499999999999988
  0
LTYPE
  2
DASHDOT
 70
     0
  3
__ . __ . __ . __ . __ . __ . 
 72
    65
 73
     4
 40
25.399999999999999
 49
12.699999999999999
 49
-6.3499999999999988
 49
0.0
 49
-6.3499999999999988
  0
LTYPE
  2
DIVIDE
 70
     0
  3
__ . . __ . . __ . . __ . . 
 72
    65
 73
     6
 40
31.75
 49
12.699999999999999
 49
-6.3499999999999988
 49
0.0
 49
-6.3499999999999988
 49
0.0
 49
-6.3499999999999988
  0
LTYPE
  2
BORDER
 70
     0
  3
__ __ . __ __ . __ __ . __ __ .
 72
    65
 73
     6
 40
44.449999999999989
 49
12.699999999999999
 49
-6.3499999999999988
 49
12.699999999999999
 49
-6.3499999999999988
 49
0.0
 49
-6.3499999999999988
  0
LTYPE
  2
BORDER2
 70
     0
  3
Border (.5x) __.__.__.__.__.__.
 72
    65
 73
     6
 40
0.875
 49
0.25
 49
-0.125
 49
0.25
 49
-0.125
 49
0.0
 49
-0.125
  0
LTYPE
  2
BORDERX2
 70
     0
  3
Border (2x) ____  ____  .  ____
 72
    65
 73
     6
 40
3.5
 49
1.0
 49
-0.5
 49
1.0
 49
-0.5
 49
0.0
 49
-0.5
  0
LTYPE
  2
CENTER2
 70
     0
  3
Center (.5x) ___ _ ___ _ ___ _ 
 72
    65
 73
     4
 40
1.125
 49
0.7500000000000001
 49
-0.125
 49
0.125
 49
-0.125
  0
LTYPE
  2
CENTERX2
 70
     0
  3
Center (2x) ________  __  _____
 72
    65
 73
     4
 40
4.0
 49
2.5
 49
-0.5
 49
0.5
 49
-0.5
  0
LTYPE
  2
DASHDOT2
 70
     0
  3
Dash dot (.5x) _._._._._._._._.
 72
    65
 73
     4
 40
0.5
 49
0.25
 49
-0.125
 49
0.0
 49
-0.125
  0
LTYPE
  2
DASHDOTX2
 70
     0
  3
Dash dot (2x) ____  .  ____  . 
 72
    65
 73
     4
 40
2.0
 49
1.0
 49
-0.5
 49
0.0
 49
-0.5
  0
LTYPE
  2
DASHED2
 70
     0
  3
Dashed (.5x) _ _ _ _ _ _ _ _ _ 
 72
    65
 73
     2
 40
0.375
 49
0.25
 49
-0.125
  0
LTYPE
  2
DASHEDX2
 70
     0
  3
Dashed (2x) ____  ____  ____  _
 72
    65
 73
     2
 40
1.5
 49
1.0
 49
-0.5
  0
LTYPE
  2
DIVIDE2
 70
     0
  3
Divide (.5x) __..__..__..__..__
 72
    65
 73
     6
 40
0.625
 49
0.25
 49
-0.125
 49
0.0
 49
-0.125
 49
0.0
 49
-0.125
  0
LTYPE
  2
DIVIDEX2
 70
     0
  3
Divide (2x) ________  .  .  ___
 72
    65
 73
     6
 40
2.5
 49
1.0
 49
-0.5
 49
0.0
 49
-0.5
 49
0.0
 49
-0.5
  0
LTYPE
  2
DOT2
 70
     0
  3
Dot (.5x) .....................
 72
    65
 73
     2
 40
0.125
 49
0.0
 49
-0.125
  0
LTYPE
  2
DOTX2
 70
     0
  3
Dot (2x) .  .  .  .  .  .  .  .
 72
    65
 73
     2
 40
0.5
 49
0.0
 49
-0.5
  0
LTYPE
  2
HIDDEN2
 70
     0
  3
Hidden (.5x) _ _ _ _ _ _ _ _ _ 
 72
    65
 73
     2
 40
0.1875
 49
0.125
 49
-0.0625
  0
LTYPE
  2
HIDDENX2
 70
     0
  3
Hidden (2x) ____ ____ ____ ____
 72
    65
 73
     2
 40
0.75
 49
0.5
 49
-0.25
  0
LTYPE
  2
PHANTOM2
 70
     0
  3
Phantom (.5x) ___ _ _ ___ _ _ _
 72
    65
 73
     6
 40
1.25
 49
0.6250000000000001
 49
-0.125
 49
0.125
 49
-0.125
 49
0.125
 49
-0.125
  0
LTYPE
  2
PHANTOMX2
 70
     0
  3
Phantom (2x) ____________    __
 72
    65
 73
     6
 40
5.0
 49
2.5
 49
-0.5
 49
0.5
 49
-0.5
 49
0.5
 49
-0.5
  0
LTYPE
  2
DOTS
 70
     0
  3
Dots - - - - - - - - - - - - - 
 72
    65
 73
     2
 40
0.1
 49
0.05
 49
-0.05
  0
LTYPE
  2
ACAD_ISO02W100
 70
     0
  3
__ __ __ __ __ __ __ __ __ __ _
 72
    65
 73
     2
 40
15.0
 49
12.0
 49
-3.0
  0
LTYPE
  2
ACAD_ISO03W100
 70
     0
  3
__    __    __    __    __    _
 72
    65
 73
     2
 40
30.0
 49
12.0
 49
-18.0
  0
LTYPE
  2
ACAD_ISO04W100
 70
     0
  3
____ . ____ . ____ . ____ . ___
 72
    65
 73
     4
 40
30.5
 49
24.0
 49
-3.0
 49
0.5
 49
-3.0
  0
LTYPE
  2
ACAD_ISO05W100
 70
     0
  3
____ .. ____ .. ____ .. ____ ..
 72
    65
 73
     6
 40
34.0
 49
24.0
 49
-3.0
 49
0.5
 49
-3.0
 49
0.5
 49
-3.0
  0
LTYPE
  2
ACAD_ISO06W100
 70
     0
  3
____ ... ____ ... ____ ... ____
 72
    65
 73
     6
 40
34.0
 49
24.0
 49
-3.0
 49
0.5
 49
-3.0
 49
0.5
 49
-3.0
  0
LTYPE
  2
ACAD_ISO07W100
 70
     0
  3
. . . . . . . . . . . . . . . .
 72
    65
 73
     2
 40
3.5
 49
0.5
 49
-3.0
  0
LTYPE
  2
ACAD_ISO08W100
 70
     0
  3
____ __ ____ __ ____ __ ____ __
 72
    65
 73
     4
 40
36.0
 49
24.0
 49
-3.0
 49
6.0
 49
-3.0
  0
LTYPE
  2
ACAD_ISO09W100
 70
     0
  3
____ __ __ ____ __ __ ____ __ _
 72
    65
 73
     6
 40
45.0
 49
24.0
 49
-3.0
 49
6.0
 49
-3.0
 49
6.0
 49
-3.0
  0
LTYPE
  2
ACAD_ISO10W100
 70
     0
  3
__ . __ . __ . __ . __ . __ . _
 72
    65
 73
     4
 40
18.5
 49
12.0
 49
-3.0
 49
0.5
 49
-3.0
  0
LTYPE
  2
ACAD_ISO11W100
 70
     0
  3
__ __ . __ __ . __ __ . __ __ .
 72
    65
 73
     6
 40
33.5
 49
12.0
 49
-3.0
 49
12.0
 49
-3.0
 49
0.5
 49
-3.0
  0
LTYPE
  2
ACAD_ISO12W100
 70
     0
  3
__ . . __ . . __ . . __ . . __ 
 72
    65
 73
     6
 40
22.0
 49
12.0
 49
-3.0
 49
0.5
 49
-3.0
 49
0.5
 49
-3.0
  0
LTYPE
  2
ACAD_ISO13W100
 70
     0
  3
__ __ . . __ __ . . __ __ . . _
 72
    65
 73
     6
 40
33.5
 49
12.0
 49
-3.0
 49
12.0
 49
-3.0
 49
0.5
 49
-3.0
  0
LTYPE
  2
ACAD_ISO14W100
 70
     0
  3
__ . . . __ . . . __ . . . __ .
 72
    65
 73
     6
 40
22.0
 49
12.0
 49
-3.0
 49
0.5
 49
-3.0
 49
0.5
 49
-3.0
  0
LTYPE
  2
ACAD_ISO15W100
 70
     0
  3
__ __ . . . __ __ . . . __ __ .
 72
    65
 73
     6
 40
33.5
 49
12.0
 49
-3.0
 49
12.0
 49
-3.0
 49
0.5
 49
-3.0
  0
ENDTAB
  0
TABLE
  2
LAYER
 70
     9
  0
LAYER
  2
0
 70
     0
 62
     7
  6
CONTINUOUS
  0
LAYER
  2
1
 70
     0
 62
     7
  6
CONTINUOUS
  0
LAYER
  2
CONSTRUCTION
 70
     0
 62
   250
  6
CONTINUOUS
  0
LAYER
  2
DIMENSIONS
 70
     1
 62
     3
  6
CONTINUOUS
  0
LAYER
  2
GEOMETRY
 70
     0
 62
     7
  6
CONTINUOUS
  0
LAYER
  2
HATCHING
 70
     1
 62
     7
  6
CONTINUOUS
  0
LAYER
  2
LAYER01
 70
     1
 62
     7
  6
CONTINUOUS
  0
LAYER
  2
NOTES
 70
     1
 62
     7
  6
CONTINUOUS
  0
LAYER
  2
SYMBOLS
 70
     1
 62
     7
  6
CONTINUOUS
  0
ENDTAB
  0
TABLE
  2
STYLE
 70
     5
  0
STYLE
  2
STANDARD
 70
     0
 40
0.0
 41
1.0
 50
0.0
 71
     0
 42
3.0
  3
txt
  4

  0
STYLE
  2
ITALIC
 70
     0
 40
0.0
 41
1.0
 50
0.0
 71
     0
 42
3.0
  3
ITALIC
  4

  0
STYLE
  2
SIMPLEX
 70
     0
 40
0.0
 41
1.0
 50
0.0
 71
     0
 42
3.0
  3
SIMPLEX
  4

  0
STYLE
  2
COMPLEX
 70
     0
 40
0.0
 41
1.0
 50
0.0
 71
     0
 42
3.0
  3
COMPLEX
  4

  0
STYLE
  2
ARIAL
 70
     0
 40
0.0
 41
1.0
 50
0.0
 71
     0
 42
3.0
  3
txt
  4

  0
ENDTAB
  0
TABLE
  2
VIEW
 70
     0
  0
ENDTAB
  0
TABLE
  2
UCS
 70
     0
  0
ENDTAB
  0
TABLE
  2
APPID
 70
     1
  0
APPID
  2
ACAD
 70
     0
  0
ENDTAB
  0
TABLE
  2
DIMSTYLE
 70
     1
  0
DIMSTYLE
  2
STANDARD
 70
     0
  3

  4

  5

  6

  7

 40
1.0
 41
0.18
 42
0.0625
 43
0.38
 44
0.18
 45
0.0
 46
0.0
 47
0.0
 48
0.0
140
0.18
141
0.09
142
0.0
143
25.399999999999999
144
1.0
145
0.0
146
1.0
147
0.09
 71
     0
 72
     0
 73
     1
 74
     1
 75
     0
 76
     0
 77
     0
 78
     0
170
     0
171
     2
172
     0
173
     0
174
     0
175
     0
176
     0
177
     0
178
     0
  0
ENDTAB
  0
ENDSEC
  0
SECTION
  2
BLOCKS
  0
BLOCK
  8
0
  2
$MODEL_SPACE
 70
     0
 10
0.0
 20
0.0
 30
0.0
  3
$MODEL_SPACE
  1

  0
ENDBLK
  5
23
  8
0
  0
BLOCK
 67
     1
  8
0
  2
$PAPER_SPACE
 70
     0
 10
0.0
 20
0.0
 30
0.0
  3
$PAPER_SPACE
  1

  0
ENDBLK
  5
1F
 67
     1
  8
0
  0
BLOCK
  8
0
 62
     7
  2
LONGARROW
 70
     0
 10
0.0
 20
0.0
 30
0.0
  3
LONGARROW
  1

  0
POLYLINE
  5
65
  8
1
  6
CONTINUOUS
 62
     0
 66
     1
 10
0.0
 20
0.0
 30
0.0
 70
     1
  0
VERTEX
  5
170
  8
1
  6
CONTINUOUS
 62
     0
 10
0.0
 20
0.0
 30
0.0
  0
VERTEX
  5
171
  8
1
  6
CONTINUOUS
 62
     0
 10
50.799999999999997
 20
-6.3499999999999988
 30
0.0
  0
VERTEX
  5
172
  8
1
  6
CONTINUOUS
 62
     0
 10
50.799999999999997
 20
6.3499999999999988
 30
0.0
  0
SEQEND
  5
173
  8
1
  6
CONTINUOUS
 62
     0
  0
INSERT
  5
66
  8
1
  6
CONTINUOUS
 62
     0
  2
*U3
 10
0.0
 20
0.0
 30
0.0
1001
ACAD
1002
{
1000
R14_HATCH_DATA
1000
66
1011
1.0
1021
0.0
1031
0.0
1021
0.0
1031
0.0
1011
0.0
1021
0.0
1031
0.0
1021
1.0
1031
0.0
1011
0.0
1021
0.0
1031
0.0
1021
0.0
1031
1.0
1040
0.0
1010
0.0
1020
0.0
1030
1.0
1000
SOLID
1070
     1
1070
     1
1071
        1
1071
        1
1071
        3
1070
     1
1040
0.0
1040
0.0
1040
50.799999999999997
1040
-6.3499999999999988
1070
     1
1040
50.799999999999997
1040
-6.3499999999999988
1040
50.799999999999997
1040
6.3499999999999988
1070
     1
1040
50.799999999999997
1040
6.3499999999999988
1040
0.0
1040
0.0
1071
        1
1005
65
1070
     0
1070
     1
1071
        1
1040
0.0
1040
0.0
1040
0.0
1002
}
  0
ENDBLK
  5
68
  8
0
 62
     7
  0
BLOCK
  8
0
 62
     7
  2
CROSS
 70
     0
 10
0.0
 20
0.0
 30
0.0
  3
CROSS
  1

  0
LINE
  5
14E
  8
1
  6
CONTINUOUS
 62
     0
 10
-12.699999999999999
 20
0.0
 30
0.0
 11
12.699999999999999
 21
0.0
 31
0.0
  0
LINE
  5
14F
  8
1
  6
CONTINUOUS
 62
     0
 10
0.0
 20
-12.699999999999999
 30
0.0
 11
0.0
 21
12.699999999999999
 31
0.0
  0
LINE
  5
150
  8
1
  6
CONTINUOUS
 62
     0
 10
12.699999999999999
 20
0.0
 30
0.0
 11
-12.699999999999999
 21
0.0
 31
0.0
  0
LINE
  5
151
  8
1
  6
CONTINUOUS
 62
     0
 10
0.0
 20
12.699999999999999
 30
0.0
 11
0.0
 21
-12.699999999999999
 31
0.0
  0
ENDBLK
  5
153
  8
0
 62
     7
  0
BLOCK
  8
0
 62
     7
  2
*U3
 70
     1
 10
0.0
 20
0.0
 30
0.0
  3
*U3
  1

  0
SOLID
  5
175
  8
1
  6
CONTINUOUS
 62
     0
 10
50.799999999999997
 20
6.3499999999999988
 30
0.0
 11
0.0
 21
0.0
 31
0.0
 12
50.799999999999997
 22
0.0
 32
0.0
 13
50.799999999999997
 23
0.0
 33
0.0
210
0.0
220
0.0
230
1.0
  0
SOLID
  5
176
  8
1
  6
CONTINUOUS
 62
     0
 10
0.0
 20
0.0
 30
0.0
 11
-50.799999999999997
 21
0.0
 31
0.0
 12
-50.799999999999997
 22
-6.3499999999999988
 32
0.0
 13
-50.799999999999997
 23
-6.3499999999999988
 33
0.0
210
0.0
220
0.0
230
-1.0
  0
LINE
  5
177
  8
1
  6
CONTINUOUS
 62
     0
 10
50.799999999999997
 20
6.3499999999999988
 30
0.0
 11
0.0
 21
0.0
 31
0.0
  0
LINE
  5
178
  8
1
  6
CONTINUOUS
 62
     0
 10
50.799999999999997
 20
0.0
 30
0.0
 11
50.799999999999997
 21
6.3499999999999988
 31
0.0
  0
LINE
  5
179
  8
1
  6
CONTINUOUS
 62
     0
 10
50.799999999999997
 20
0.0
 30
0.0
 11
50.799999999999997
 21
-6.3499999999999988
 31
0.0
  0
LINE
  5
17A
  8
1
  6
CONTINUOUS
 62
     0
 10
50.799999999999997
 20
-6.3499999999999988
 30
0.0
 11
0.0
 21
0.0
 31
0.0
  0
ENDBLK
  5
17C
  8
0
 62
     7
  0
BLOCK
  8
0
 62
     7
  2
*U4
 70
     1
 10
0.0
 20
0.0
 30
0.0
  3
*U4
  1

  0
SOLID
  5
2DA
  8
CONSTRUCTION
  6
CONTINUOUS
 62
     7
 10
116.8099554907982
 20
229.2695910605847
 30
0.0
 11
116.8099554907982
 21
229.2695910605847
 31
0.0
 12
120.2902502296473
 22
229.2695910605847
 32
0.0
 13
120.2902502296473
 23
229.2695910605847
 33
0.0
210
0.0
220
0.0
230
1.0
  0
SOLID
  5
2DB
  8
CONSTRUCTION
  6
CONTINUOUS
 62
     7
 10
116.8099554907982
 20
229.2695910605847
 30
0.0
 11
116.8099554907982
 21
228.93355606665179
 31
0.0
 12
120.2902502296473
 22
228.93355606665179
 32
0.0
 13
120.2902502296473
 23
228.93355606665179
 33
0.0
210
0.0
220
0.0
230
1.0
  0
SOLID
  5
2DC
  8
CONSTRUCTION
  6
CONTINUOUS
 62
     7
 10
-116.8099554907982
 20
229.2695910605847
 30
0.0
 11
-120.2902502296473
 21
229.2695910605847
 31
0.0
 12
-120.2902502296473
 22
228.93355606665179
 32
0.0
 13
-120.2902502296473
 23
228.93355606665179
 33
0.0
210
0.0
220
0.0
230
-1.0
  0
SOLID
  5
2DD
  8
CONSTRUCTION
  6
CONTINUOUS
 62
     7
 10
117.49088272231219
 20
228.93355606665179
 30
0.0
 11
117.49088272231219
 21
228.93355606665179
 31
0.0
 12
120.2902502296473
 22
228.93355606665179
 32
0.0
 13
120.2902502296473
 23
228.93355606665179
 33
0.0
210
0.0
220
0.0
230
1.0
  0
SOLID
  5
2DE
  8
CONSTRUCTION
  6
CONTINUOUS
 62
     7
 10
116.8099554907982
 20
228.93355606665179
 30
0.0
 11
116.8099554907982
 21
228.05575036821509
 31
0.0
 12
117.49088272231219
 22
228.05575036821509
 32
0.0
 13
117.49088272231219
 23
228.05575036821509
 33
0.0
210
0.0
220
0.0
230
1.0
  0
SOLID
  5
2DF
  8
CONSTRUCTION
  6
CONTINUOUS
 62
     7
 10
-116.8099554907982
 20
228.93355606665179
 30
0.0
 11
-117.49088272231219
 21
228.93355606665179
 31
0.0
 12
-117.49088272231219
 22
228.05575036821509
 32
0.0
 13
-117.49088272231219
 23
228.05575036821509
 33
0.0
210
0.0
220
0.0
230
-1.0
  0
SOLID
  5
2E0
  8
CONSTRUCTION
  6
CONTINUOUS
 62
     7
 10
117.49088272231219
 20
228.05575036821509
 30
0.0
 11
117.49088272231219
 21
228.05575036821509
 31
0.0
 12
119.9119573232507
 22
228.05575036821509
 32
0.0
 13
119.9119573232507
 23
228.05575036821509
 33
0.0
210
0.0
220
0.0
230
1.0
  0
SOLID
  5
2E1
  8
CONSTRUCTION
  6
CONTINUOUS
 62
     7
 10
116.8099554907982
 20
228.05575036821509
 30
0.0
 11
116.8099554907982
 21
227.7197153742822
 31
0.0
 12
119.9119573232507
 22
227.7197153742822
 32
0.0
 13
119.9119573232507
 23
227.7197153742822
 33
0.0
210
0.0
220
0.0
230
1.0
  0
SOLID
  5
2E2
  8
CONSTRUCTION
  6
CONTINUOUS
 62
     7
 10
-116.8099554907982
 20
228.05575036821509
 30
0.0
 11
-119.9119573232507
 21
228.05575036821509
 31
0.0
 12
-119.9119573232507
 22
227.7197153742822
 32
0.0
 13
-119.9119573232507
 23
227.7197153742822
 33
0.0
210
0.0
220
0.0
230
-1.0
  0
SOLID
  5
2E3
  8
CONSTRUCTION
  6
CONTINUOUS
 62
     7
 10
117.49088272231219
 20
227.7197153742822
 30
0.0
 11
117.49088272231219
 21
227.7197153742822
 31
0.0
 12
119.9119573232507
 22
227.7197153742822
 32
0.0
 13
119.9119573232507
 23
227.7197153742822
 33
0.0
210
0.0
220
0.0
230
1.0
  0
SOLID
  5
2E4
  8
CONSTRUCTION
  6
CONTINUOUS
 62
     7
 10
116.8099554907982
 20
227.7197153742822
 30
0.0
 11
116.8099554907982
 21
226.4304382547032
 31
0.0
 12
117.49088272231219
 22
226.4304382547032
 32
0.0
 13
117.49088272231219
 23
226.4304382547032
 33
0.0
210
0.0
220
0.0
230
1.0
  0
SOLID
  5
2E5
  8
CONSTRUCTION
  6
CONTINUOUS
 62
     7
 10
-116.8099554907982
 20
227.7197153742822
 30
0.0
 11
-117.49088272231219
 21
227.7197153742822
 31
0.0
 12
-117.49088272231219
 22
226.4304382547032
 32
0.0
 13
-117.49088272231219
 23
226.4304382547032
 33
0.0
210
0.0
220
0.0
230
-1.0
  0
SOLID
  5
2E6
  8
CONSTRUCTION
  6
CONTINUOUS
 62
     7
 10
116.8099554907982
 20
226.4304382547032
 30
0.0
 11
116.8099554907982
 21
226.4304382547032
 31
0.0
 12
117.49088272231219
 22
226.4304382547032
 32
0.0
 13
117.49088272231219
 23
226.4304382547032
 33
0.0
210
0.0
220
0.0
230
1.0
  0
LINE
  5
2E7
  8
CONSTRUCTION
  6
CONTINUOUS
 62
     7
 10
116.8099554907982
 20
229.2695910605847
 30
0.0
 11
120.2902502296473
 21
229.2695910605847
 31
0.0
  0
LINE
  5
2E8
  8
CONSTRUCTION
  6
CONTINUOUS
 62
     7
 10
116.8099554907982
 20
229.2695910605847
 30
0.0
 11
116.8099554907982
 21
228.93355606665179
 31
0.0
  0
LINE
  5
2E9
  8
CONSTRUCTION
  6
CONTINUOUS
 62
     7
 10
120.2902502296473
 20
229.2695910605847
 30
0.0
 11
120.2902502296473
 21
228.93355606665179
 31
0.0
  0
LINE
  5
2EA
  8
CONSTRUCTION
  6
CONTINUOUS
 62
     7
 10
117.49088272231219
 20
228.93355606665179
 30
0.0
 11
120.2902502296473
 21
228.93355606665179
 31
0.0
  0
LINE
  5
2EB
  8
CONSTRUCTION
  6
CONTINUOUS
 62
     7
 10
116.8099554907982
 20
228.93355606665179
 30
0.0
 11
116.8099554907982
 21
228.05575036821509
 31
0.0
  0
LINE
  5
2EC
  8
CONSTRUCTION
  6
CONTINUOUS
 62
     7
 10
117.49088272231219
 20
228.93355606665179
 30
0.0
 11
117.49088272231219
 21
228.05575036821509
 31
0.0
  0
LINE
  5
2ED
  8
CONSTRUCTION
  6
CONTINUOUS
 62
     7
 10
117.49088272231219
 20
228.05575036821509
 30
0.0
 11
119.9119573232507
 21
228.05575036821509
 31
0.0
  0
LINE
  5
2EE
  8
CONSTRUCTION
  6
CONTINUOUS
 62
     7
 10
116.8099554907982
 20
228.05575036821509
 30
0.0
 11
116.8099554907982
 21
227.7197153742822
 31
0.0
  0
LINE
  5
2EF
  8
CONSTRUCTION
  6
CONTINUOUS
 62
     7
 10
119.9119573232507
 20
228.05575036821509
 30
0.0
 11
119.9119573232507
 21
227.7197153742822
 31
0.0
  0
LINE
  5
2F0
  8
CONSTRUCTION
  6
CONTINUOUS
 62
     7
 10
117.49088272231219
 20
227.7197153742822
 30
0.0
 11
119.9119573232507
 21
227.7197153742822
 31
0.0
  0
LINE
  5
2F1
  8
CONSTRUCTION
  6
CONTINUOUS
 62
     7
 10
116.8099554907982
 20
227.7197153742822
 30
0.0
 11
116.8099554907982
 21
226.4304382547032
 31
0.0
  0
LINE
  5
2F2
  8
CONSTRUCTION
  6
CONTINUOUS
 62
     7
 10
117.49088272231219
 20
227.7197153742822
 30
0.0
 11
117.49088272231219
 21
226.4304382547032
 31
0.0
  0
LINE
  5
2F3
  8
CONSTRUCTION
  6
CONTINUOUS
 62
     7
 10
116.8099554907982
 20
226.4304382547032
 30
0.0
 11
117.49088272231219
 21
226.4304382547032
 31
0.0
  0
ENDBLK
  5
2F5
  8
0
 62
     7
  0
BLOCK
  8
0
 62
     7
  2
*U5
 70
     1
 10
0.0
 20
0.0
 30
0.0
  3
*U5
  1

  0
SOLID
  5
2F7
  8
CONSTRUCTION
  6
CONTINUOUS
 62
     7
 10
120.81986029860261
 20
229.2695910605847
 30
0.0
 11
120.81986029860261
 21
229.2695910605847
 31
0.0
 12
121.5007875301166
 22
229.2695910605847
 32
0.0
 13
121.5007875301166
 23
229.2695910605847
 33
0.0
210
0.0
220
0.0
230
1.0
  0
SOLID
  5
2F8
  8
CONSTRUCTION
  6
CONTINUOUS
 62
     7
 10
120.81986029860261
 20
229.2695910605847
 30
0.0
 11
120.81986029860261
 21
226.766473248636
 31
0.0
 12
121.5007875301166
 22
226.766473248636
 32
0.0
 13
121.5007875301166
 23
226.766473248636
 33
0.0
210
0.0
220
0.0
230
1.0
  0
SOLID
  5
2F9
  8
CONSTRUCTION
  6
CONTINUOUS
 62
     7
 10
-120.81986029860261
 20
229.2695910605847
 30
0.0
 11
-121.5007875301166
 21
229.2695910605847
 31
0.0
 12
-121.5007875301166
 22
226.766473248636
 32
0.0
 13
-121.5007875301166
 23
226.766473248636
 33
0.0
210
0.0
220
0.0
230
-1.0
  0
SOLID
  5
2FA
  8
CONSTRUCTION
  6
CONTINUOUS
 62
     7
 10
121.5007875301166
 20
226.766473248636
 30
0.0
 11
121.5007875301166
 21
226.766473248636
 31
0.0
 12
124.04795976652061
 22
226.766473248636
 32
0.0
 13
124.04795976652061
 23
226.766473248636
 33
0.0
210
0.0
220
0.0
230
1.0
  0
SOLID
  5
2FB
  8
CONSTRUCTION
  6
CONTINUOUS
 62
     7
 10
120.81986029860261
 20
226.766473248636
 30
0.0
 11
120.81986029860261
 21
226.4304382547032
 31
0.0
 12
124.04795976652061
 22
226.4304382547032
 32
0.0
 13
124.04795976652061
 23
226.4304382547032
 33
0.0
210
0.0
220
0.0
230
1.0
  0
SOLID
  5
2FC
  8
CONSTRUCTION
  6
CONTINUOUS
 62
     7
 10
-120.81986029860261
 20
226.766473248636
 30
0.0
 11
-124.04795976652061
 21
226.766473248636
 31
0.0
 12
-124.04795976652061
 22
226.4304382547032
 32
0.0
 13
-124.04795976652061
 23
226.4304382547032
 33
0.0
210
0.0
220
0.0
230
-1.0
  0
SOLID
  5
2FD
  8
CONSTRUCTION
  6
CONTINUOUS
 62
     7
 10
120.81986029860261
 20
226.4304382547032
 30
0.0
 11
120.81986029860261
 21
226.4304382547032
 31
0.0
 12
124.04795976652061
 22
226.4304382547032
 32
0.0
 13
124.04795976652061
 23
226.4304382547032
 33
0.0
210
0.0
220
0.0
230
1.0
  0
LINE
  5
2FE
  8
CONSTRUCTION
  6
CONTINUOUS
 62
     7
 10
120.81986029860261
 20
229.2695910605847
 30
0.0
 11
121.5007875301166
 21
229.2695910605847
 31
0.0
  0
LINE
  5
2FF
  8
CONSTRUCTION
  6
CONTINUOUS
 62
     7
 10
120.81986029860261
 20
229.2695910605847
 30
0.0
 11
120.81986029860261
 21
226.766473248636
 31
0.0
  0
LINE
  5
300
  8
CONSTRUCTION
  6
CONTINUOUS
 62
     7
 10
121.5007875301166
 20
229.2695910605847
 30
0.0
 11
121.5007875301166
 21
226.766473248636
 31
0.0
  0
LINE
  5
301
  8
CONSTRUCTION
  6
CONTINUOUS
 62
     7
 10
121.5007875301166
 20
226.766473248636
 30
0.0
 11
124.04795976652061
 21
226.766473248636
 31
0.0
  0
LINE
  5
302
  8
CONSTRUCTION
  6
CONTINUOUS
 62
     7
 10
120.81986029860261
 20
226.766473248636
 30
0.0
 11
120.81986029860261
 21
226.4304382547032
 31
0.0
  0
LINE
  5
303
  8
CONSTRUCTION
  6
CONTINUOUS
 62
     7
 10
124.04795976652061
 20
226.766473248636
 30
0.0
 11
124.04795976652061
 21
226.4304382547032
 31
0.0
  0
LINE
  5
304
  8
CONSTRUCTION
  6
CONTINUOUS
 62
     7
 10
120.81986029860261
 20
226.4304382547032
 30
0.0
 11
124.04795976652061
 21
226.4304382547032
 31
0.0
  0
ENDBLK
  5
306
  8
0
 62
     7
  0
BLOCK
  8
0
 62
     7
  2
*U6
 70
     1
 10
0.0
 20
0.0
 30
0.0
  3
*U6
  1

  0
SOLID
  5
308
  8
CONSTRUCTION
  6
CONTINUOUS
 62
     7
 10
124.5775698354759
 20
229.2695910605847
 30
0.0
 11
124.5775698354759
 21
229.2695910605847
 31
0.0
 12
128.2974500817096
 22
229.2695910605847
 32
0.0
 13
128.2974500817096
 23
229.2695910605847
 33
0.0
210
0.0
220
0.0
230
1.0
  0
SOLID
  5
309
  8
CONSTRUCTION
  6
CONTINUOUS
 62
     7
 10
124.5775698354759
 20
229.2695910605847
 30
0.0
 11
124.5775698354759
 21
228.93355606665179
 31
0.0
 12
128.2974500817096
 22
228.93355606665179
 32
0.0
 13
128.2974500817096
 23
228.93355606665179
 33
0.0
210
0.0
220
0.0
230
1.0
  0
SOLID
  5
30A
  8
CONSTRUCTION
  6
CONTINUOUS
 62
     7
 10
-124.5775698354759
 20
229.2695910605847
 30
0.0
 11
-128.2974500817096
 21
229.2695910605847
 31
0.0
 12
-128.2974500817096
 22
228.93355606665179
 32
0.0
 13
-128.2974500817096
 23
228.93355606665179
 33
0.0
210
0.0
220
0.0
230
-1.0
  0
SOLID
  5
30B
  8
CONSTRUCTION
  6
CONTINUOUS
 62
     7
 10
125.2584970669899
 20
228.93355606665179
 30
0.0
 11
125.2584970669899
 21
228.93355606665179
 31
0.0
 12
128.2974500817096
 22
228.93355606665179
 32
0.0
 13
128.2974500817096
 23
228.93355606665179
 33
0.0
210
0.0
220
0.0
230
1.0
  0
SOLID
  5
30C
  8
CONSTRUCTION
  6
CONTINUOUS
 62
     7
 10
124.5775698354759
 20
228.93355606665179
 30
0.0
 11
124.5775698354759
 21
228.06946608225309
 31
0.0
 12
125.2584970669899
 22
228.06946608225309
 32
0.0
 13
125.2584970669899
 23
228.06946608225309
 33
0.0
210
0.0
220
0.0
230
1.0
  0
SOLID
  5
30D
  8
CONSTRUCTION
  6
CONTINUOUS
 62
     7
 10
-124.5775698354759
 20
228.93355606665179
 30
0.0
 11
-125.2584970669899
 21
228.93355606665179
 31
0.0
 12
-125.2584970669899
 22
228.06946608225309
 32
0.0
 13
-125.2584970669899
 23
228.06946608225309
 33
0.0
210
0.0
220
0.0
230
-1.0
  0
SOLID
  5
30E
  8
CONSTRUCTION
  6
CONTINUOUS
 62
     7
 10
125.2584970669899
 20
228.06946608225309
 30
0.0
 11
125.2584970669899
 21
228.06946608225309
 31
0.0
 12
128.10830362851129
 22
228.06946608225309
 32
0.0
 13
128.10830362851129
 23
228.06946608225309
 33
0.0
210
0.0
220
0.0
230
1.0
  0
SOLID
  5
30F
  8
CONSTRUCTION
  6
CONTINUOUS
 62
     7
 10
124.5775698354759
 20
228.06946608225309
 30
0.0
 11
124.5775698354759
 21
227.73343108832029
 31
0.0
 12
128.10830362851129
 22
227.73343108832029
 32
0.0
 13
128.10830362851129
 23
227.73343108832029
 33
0.0
210
0.0
220
0.0
230
1.0
  0
SOLID
  5
310
  8
CONSTRUCTION
  6
CONTINUOUS
 62
     7
 10
-124.5775698354759
 20
228.06946608225309
 30
0.0
 11
-128.10830362851129
 21
228.06946608225309
 31
0.0
 12
-128.10830362851129
 22
227.73343108832029
 32
0.0
 13
-128.10830362851129
 23
227.73343108832029
 33
0.0
210
0.0
220
0.0
230
-1.0
  0
SOLID
  5
311
  8
CONSTRUCTION
  6
CONTINUOUS
 62
     7
 10
125.2584970669899
 20
227.73343108832029
 30
0.0
 11
125.2584970669899
 21
227.73343108832029
 31
0.0
 12
128.10830362851129
 22
227.73343108832029
 32
0.0
 13
128.10830362851129
 23
227.73343108832029
 33
0.0
210
0.0
220
0.0
230
1.0
  0
SOLID
  5
312
  8
CONSTRUCTION
  6
CONTINUOUS
 62
     7
 10
124.5775698354759
 20
227.73343108832029
 30
0.0
 11
124.5775698354759
 21
226.766473248636
 31
0.0
 12
125.2584970669899
 22
226.766473248636
 32
0.0
 13
125.2584970669899
 23
226.766473248636
 33
0.0
210
0.0
220
0.0
230
1.0
  0
SOLID
  5
313
  8
CONSTRUCTION
  6
CONTINUOUS
 62
     7
 10
-124.5775698354759
 20
227.73343108832029
 30
0.0
 11
-125.2584970669899
 21
227.73343108832029
 31
0.0
 12
-125.2584970669899
 22
226.766473248636
 32
0.0
 13
-125.2584970669899
 23
226.766473248636
 33
0.0
210
0.0
220
0.0
230
-1.0
  0
SOLID
  5
314
  8
CONSTRUCTION
  6
CONTINUOUS
 62
     7
 10
125.2584970669899
 20
226.766473248636
 30
0.0
 11
125.2584970669899
 21
226.766473248636
 31
0.0
 12
128.4109379536286
 22
226.766473248636
 32
0.0
 13
128.4109379536286
 23
226.766473248636
 33
0.0
210
0.0
220
0.0
230
1.0
  0
SOLID
  5
315
  8
CONSTRUCTION
  6
CONTINUOUS
 62
     7
 10
124.5775698354759
 20
226.766473248636
 30
0.0
 11
124.5775698354759
 21
226.4304382547032
 31
0.0
 12
128.4109379536286
 22
226.4304382547032
 32
0.0
 13
128.4109379536286
 23
226.4304382547032
 33
0.0
  0
SOLID
  5
316
  8
CONSTRUCTION
  6
CONTINUOUS
 62
     7
 10
-124.5775698354759
 20
226.766473248636
 30
0.0
 11
-128.4109379536286
 21
226.766473248636
 31
0.0
 12
-128.4109379536286
 22
226.4304382547032
 32
0.0
 13
-128.4109379536286
 23
226.4304382547032
 33
0.0
210
0.0
220
0.0
230
-1.0
  0
SOLID
  5
317
  8
CONSTRUCTION
  6
CONTINUOUS
 62
     7
 10
124.5775698354759
 20
226.4304382547032
 30
0.0
 11
124.5775698354759
 21
226.4304382547032
 31
0.0
 12
128.4109379536286
 22
226.4304382547032
 32
0.0
 13
128.4109379536286
 23
226.4304382547032
 33
0.0
210
0.0
220
0.0
230
1.0
  0
LINE
  5
318
  8
CONSTRUCTION
  6
CONTINUOUS
 62
     7
 10
124.5775698354759
 20
229.2695910605847
 30
0.0
 11
128.2974500817096
 21
229.2695910605847
 31
0.0
  0
LINE
  5
319
  8
CONSTRUCTION
  6
CONTINUOUS
 62
     7
 10
124.5775698354759
 20
229.2695910605847
 30
0.0
 11
124.5775698354759
 21
228.93355606665179
 31
0.0
  0
LINE
  5
31A
  8
CONSTRUCTION
  6
CONTINUOUS
 62
     7
 10
128.2974500817096
 20
229.2695910605847
 30
0.0
 11
128.2974500817096
 21
228.93355606665179
 31
0.0
  0
LINE
  5
31B
  8
CONSTRUCTION
  6
CONTINUOUS
 62
     7
 10
125.2584970669899
 20
228.93355606665179
 30
0.0
 11
128.2974500817096
 21
228.93355606665179
 31
0.0
  0
LINE
  5
31C
  8
CONSTRUCTION
  6
CONTINUOUS
 62
     7
 10
124.5775698354759
 20
228.93355606665179
 30
0.0
 11
124.5775698354759
 21
228.06946608225309
 31
0.0
  0
LINE
  5
31D
  8
CONSTRUCTION
  6
CONTINUOUS
 62
     7
 10
125.2584970669899
 20
228.93355606665179
 30
0.0
 11
125.2584970669899
 21
228.06946608225309
 31
0.0
  0
LINE
  5
31E
  8
CONSTRUCTION
  6
CONTINUOUS
 62
     7
 10
125.2584970669899
 20
228.06946608225309
 30
0.0
 11
128.10830362851129
 21
228.06946608225309
 31
0.0
  0
LINE
  5
31F
  8
CONSTRUCTION
  6
CONTINUOUS
 62
     7
 10
124.5775698354759
 20
228.06946608225309
 30
0.0
 11
124.5775698354759
 21
227.73343108832029
 31
0.0
  0
LINE
  5
320
  8
CONSTRUCTION
  6
CONTINUOUS
 62
     7
 10
128.10830362851129
 20
228.06946608225309
 30
0.0
 11
128.10830362851129
 21
227.73343108832029
 31
0.0
  0
LINE
  5
321
  8
CONSTRUCTION
  6
CONTINUOUS
 62
     7
 10
125.2584970669899
 20
227.73343108832029
 30
0.0
 11
128.10830362851129
 21
227.73343108832029
 31
0.0
  0
LINE
  5
322
  8
CONSTRUCTION
  6
CONTINUOUS
 62
     7
 10
124.5775698354759
 20
227.73343108832029
 30
0.0
 11
124.5775698354759
 21
226.766473248636
 31
0.0
  0
LINE
  5
323
  8
CONSTRUCTION
  6
CONTINUOUS
 62
     7
 10
125.2584970669899
 20
227.73343108832029
 30
0.0
 11
125.2584970669899
 21
226.766473248636
 31
0.0
  0
LINE
  5
324
  8
CONSTRUCTION
  6
CONTINUOUS
 62
     7
 10
125.2584970669899
 20
226.766473248636
 30
0.0
 11
128.4109379536286
 21
226.766473248636
 31
0.0
  0
LINE
  5
325
  8
CONSTRUCTION
  6
CONTINUOUS
 62
     7
 10
124.5775698354759
 20
226.766473248636
 30
0.0
 11
124.5775698354759
 21
226.4304382547032
 31
0.0
  0
LINE
  5
326
  8
CONSTRUCTION
  6
CONTINUOUS
 62
     7
 10
128.4109379536286
 20
226.766473248636
 30
0.0
 11
128.4109379536286
 21
226.4304382547032
 31
0.0
  0
LINE
  5
327
  8
CONSTRUCTION
  6
CONTINUOUS
 62
     7
 10
124.5775698354759
 20
226.4304382547032
 30
0.0
 11
128.4109379536286
 21
226.4304382547032
 31
0.0
  0
ENDBLK
  5
329
  8
0
 62
     7
  0
BLOCK
  8
0
 62
     7
  2
*U7
 70
     1
 10
0.0
 20
0.0
 30
0.0
  3
*U7
  1

  0
SOLID
  5
32B
  8
CONSTRUCTION
  6
CONTINUOUS
 62
     7
 10
136.4872367677788
 20
229.43300085004969
 30
0.0
 11
135.19403134881651
 21
229.42719508216641
 31
0.0
 12
136.47954154877789
 22
229.42719508216641
 32
0.0
 13
136.47954154877789
 23
229.42719508216641
 33
0.0
210
0.0
220
0.0
230
1.0
  0
SOLID
  5
32C
  8
CONSTRUCTION
  6
CONTINUOUS
 62
     7
 10
135.19403134881651
 20
229.42719508216641
 30
0.0
 11
135.16590298568499
 21
229.4061610706548
 31
0.0
 12
136.45166214879069
 22
229.4061610706548
 32
0.0
 13
136.45166214879069
 23
229.4061610706548
 33
0.0
  0
SOLID
  5
32D
  8
CONSTRUCTION
  6
CONTINUOUS
 62
     7
 10
-135.19403134881651
 20
229.42719508216641
 30
0.0
 11
-136.47954154877789
 21
229.42719508216641
 31
0.0
 12
-136.45166214879069
 22
229.4061610706548
 32
0.0
 13
-136.45166214879069
 23
229.4061610706548
 33
0.0
210
0.0
220
0.0
230
-1.0
  0
SOLID
  5
32E
  8
CONSTRUCTION
  6
CONTINUOUS
 62
     7
 10
130.50881171618221
 20
229.4061610706548
 30
0.0
 11
129.17320611954889
 21
229.4001649497261
 31
0.0
 12
130.51677450654699
 22
229.4001649497261
 32
0.0
 13
130.51677450654699
 23
229.4001649497261
 33
0.0
  0
SOLID
  5
32F
  8
CONSTRUCTION
  6
CONTINUOUS
 62
     7
 10
135.16590298568499
 20
229.4061610706548
 30
0.0
 11
135.15788449302761
 21
229.4001649497261
 31
0.0
 12
136.4437146275273
 22
229.4001649497261
 32
0.0
 13
136.4437146275273
 23
229.4001649497261
 33
0.0
210
0.0
220
0.0
230
1.0
  0
SOLID
  5
330
  8
CONSTRUCTION
  6
CONTINUOUS
 62
     7
 10
-135.16590298568499
 20
229.4061610706548
 30
0.0
 11
-136.45166214879069
 21
229.4061610706548
 31
0.0
 12
-136.4437146275273
 22
229.4001649497261
 32
0.0
 13
-136.4437146275273
 23
229.4001649497261
 33
0.0
210
0.0
220
0.0
230
-1.0
  0
SOLID
  5
331
  8
CONSTRUCTION
  6
CONTINUOUS
 62
     7
 10
129.17320611954889
 20
229.4001649497261
 30
0.0
 11
130.75352124363289
 21
228.1900061832911
 31
0.0
 12
132.12385359647379
 22
228.1900061832911
 32
0.0
 13
132.12385359647379
 23
228.1900061832911
 33
0.0
210
0.0
220
0.0
230
1.0
  0
SOLID
  5
332
  8
CONSTRUCTION
  6
CONTINUOUS
 62
     7
 10
-129.17320611954889
 20
229.4001649497261
 30
0.0
 11
-130.51677450654699
 21
229.4001649497261
 31
0.0
 12
-132.12385359647379
 22
228.1900061832911
 32
0.0
 13
-132.12385359647379
 23
228.1900061832911
 33
0.0
210
0.0
220
0.0
230
-1.0
  0
SOLID
  5
333
  8
CONSTRUCTION
  6
CONTINUOUS
 62
     7
 10
135.15788449302761
 20
229.4001649497261
 30
0.0
 11
133.53956336536021
 21
228.1900061832911
 31
0.0
 12
134.83971720274999
 22
228.1900061832911
 32
0.0
 13
134.83971720274999
 23
228.1900061832911
 33
0.0
210
0.0
220
0.0
230
1.0
  0
SOLID
  5
334
  8
CONSTRUCTION
  6
CONTINUOUS
 62
     7
 10
-135.15788449302761
 20
229.4001649497261
 30
0.0
 11
-136.4437146275273
 21
229.4001649497261
 31
0.0
 12
-134.83971720274999
 22
228.1900061832911
 32
0.0
 13
-134.83971720274999
 23
228.1900061832911
 33
0.0
210
0.0
220
0.0
230
-1.0
  0
SOLID
  5
335
  8
CONSTRUCTION
  6
CONTINUOUS
 62
     7
 10
130.75352124363289
 20
228.1900061832911
 30
0.0
 11
130.79023476442609
 21
228.1618920506366
 31
0.0
 12
132.15998741087969
 22
228.1618920506366
 32
0.0
 13
132.15998741087969
 23
228.1618920506366
 33
0.0
210
0.0
220
0.0
230
1.0
  0
SOLID
  5
336
  8
CONSTRUCTION
  6
CONTINUOUS
 62
     7
 10
-130.75352124363289
 20
228.1900061832911
 30
0.0
 11
-132.12385359647379
 21
228.1900061832911
 31
0.0
 12
-132.15998741087969
 22
228.1618920506366
 32
0.0
 13
-132.15998741087969
 23
228.1618920506366
 33
0.0
210
0.0
220
0.0
230
-1.0
  0
SOLID
  5
337
  8
CONSTRUCTION
  6
CONTINUOUS
 62
     7
 10
133.53956336536021
 20
228.1900061832911
 30
0.0
 11
133.50196689775379
 21
228.1618920506366
 31
0.0
 12
134.80245350014451
 22
228.1618920506366
 32
0.0
 13
134.80245350014451
 23
228.1618920506366
 33
0.0
  0
SOLID
  5
338
  8
CONSTRUCTION
  6
CONTINUOUS
 62
     7
 10
-133.53956336536021
 20
228.1900061832911
 30
0.0
 11
-134.83971720274999
 21
228.1900061832911
 31
0.0
 12
-134.80245350014451
 22
228.1618920506366
 32
0.0
 13
-134.80245350014451
 23
228.1618920506366
 33
0.0
210
0.0
220
0.0
230
-1.0
  0
SOLID
  5
339
  8
CONSTRUCTION
  6
CONTINUOUS
 62
     7
 10
130.79023476442609
 20
228.1618920506366
 30
0.0
 11
130.9910462166647
 21
228.00811655635471
 31
0.0
 12
132.35762805086719
 22
228.00811655635471
 32
0.0
 13
132.35762805086719
 23
228.00811655635471
 33
0.0
  0
SOLID
  5
33A
  8
CONSTRUCTION
  6
CONTINUOUS
 62
     7
 10
-130.79023476442609
 20
228.1618920506366
 30
0.0
 11
-132.15998741087969
 21
228.1618920506366
 31
0.0
 12
-132.35762805086719
 22
228.00811655635471
 32
0.0
 13
-132.35762805086719
 23
228.00811655635471
 33
0.0
210
0.0
220
0.0
230
-1.0
  0
SOLID
  5
33B
  8
CONSTRUCTION
  6
CONTINUOUS
 62
     7
 10
133.50196689775379
 20
228.1618920506366
 30
0.0
 11
133.30166232341631
 21
228.00811655635471
 31
0.0
 12
134.598632725827
 22
228.00811655635471
 32
0.0
 13
134.598632725827
 23
228.00811655635471
 33
0.0
210
0.0
220
0.0
230
1.0
  0
SOLID
  5
33C
  8
CONSTRUCTION
  6
CONTINUOUS
 62
     7
 10
-133.50196689775379
 20
228.1618920506366
 30
0.0
 11
-134.80245350014451
 21
228.1618920506366
 31
0.0
 12
-134.598632725827
 22
228.00811655635471
 32
0.0
 13
-134.598632725827
 23
228.00811655635471
 33
0.0
210
0.0
220
0.0
230
-1.0
  0
SOLID
  5
33D
  8
CONSTRUCTION
  6
CONTINUOUS
 62
     7
 10
130.9910462166647
 20
228.00811655635471
 30
0.0
 11
131.1506858909496
 21
227.88586919672221
 31
0.0
 12
132.51584942243949
 22
227.88586919672221
 32
0.0
 13
132.51584942243949
 23
227.88586919672221
 33
0.0
210
0.0
220
0.0
230
1.0
  0
SOLID
  5
33E
  8
CONSTRUCTION
  6
CONTINUOUS
 62
     7
 10
-130.9910462166647
 20
228.00811655635471
 30
0.0
 11
-132.35762805086719
 21
228.00811655635471
 31
0.0
 12
-132.51584942243949
 22
227.88586919672221
 32
0.0
 13
-132.51584942243949
 23
227.88586919672221
 33
0.0
210
0.0
220
0.0
230
-1.0
  0
SOLID
  5
33F
  8
CONSTRUCTION
  6
CONTINUOUS
 62
     7
 10
133.30166232341631
 20
228.00811655635471
 30
0.0
 11
133.14242560335609
 21
227.88586919672221
 31
0.0
 12
134.436600721866
 22
227.88586919672221
 32
0.0
 13
134.436600721866
 23
227.88586919672221
 33
0.0
210
0.0
220
0.0
230
1.0
  0
SOLID
  5
340
  8
CONSTRUCTION
  6
CONTINUOUS
 62
     7
 10
-133.30166232341631
 20
228.00811655635471
 30
0.0
 11
-134.598632725827
 21
228.00811655635471
 31
0.0
 12
-134.436600721866
 22
227.88586919672221
 32
0.0
 13
-134.436600721866
 23
227.88586919672221
 33
0.0
210
0.0
220
0.0
230
-1.0
  0
SOLID
  5
341
  8
CONSTRUCTION
  6
CONTINUOUS
 62
     7
 10
131.1506858909496
 20
227.88586919672221
 30
0.0
 11
131.18402748921781
 21
227.86033718300141
 31
0.0
 12
132.54889480061399
 22
227.86033718300141
 32
0.0
 13
132.54889480061399
 23
227.86033718300141
 33
0.0
210
0.0
220
0.0
230
1.0
  0
SOLID
  5
342
  8
CONSTRUCTION
  6
CONTINUOUS
 62
     7
 10
-131.1506858909496
 20
227.88586919672221
 30
0.0
 11
-132.51584942243949
 21
227.88586919672221
 31
0.0
 12
-132.54889480061399
 22
227.86033718300141
 32
0.0
 13
-132.54889480061399
 23
227.86033718300141
 33
0.0
210
0.0
220
0.0
230
-1.0
  0
SOLID
  5
343
  8
CONSTRUCTION
  6
CONTINUOUS
 62
     7
 10
133.14242560335609
 20
227.88586919672221
 30
0.0
 11
133.10976156259869
 21
227.86033718300141
 31
0.0
 12
134.4027594727726
 22
227.86033718300141
 32
0.0
 13
134.4027594727726
 23
227.86033718300141
 33
0.0
210
0.0
220
0.0
230
1.0
  0
SOLID
  5
344
  8
CONSTRUCTION
  6
CONTINUOUS
 62
     7
 10
-133.14242560335609
 20
227.88586919672221
 30
0.0
 11
-134.436600721866
 21
227.88586919672221
 31
0.0
 12
-134.4027594727726
 22
227.86033718300141
 32
0.0
 13
-134.4027594727726
 23
227.86033718300141
 33
0.0
210
0.0
220
0.0
230
-1.0
  0
SOLID
  5
345
  8
CONSTRUCTION
  6
CONTINUOUS
 62
     7
 10
131.18402748921781
 20
227.86033718300141
 30
0.0
 11
131.34739582049559
 21
227.7352345276887
 31
0.0
 12
132.69768968803939
 22
227.7352345276887
 32
0.0
 13
132.69768968803939
 23
227.7352345276887
 33
0.0
210
0.0
220
0.0
230
1.0
  0
SOLID
  5
346
  8
CONSTRUCTION
  6
CONTINUOUS
 62
     7
 10
-131.18402748921781
 20
227.86033718300141
 30
0.0
 11
-132.54889480061399
 21
227.86033718300141
 31
0.0
 12
-132.69768968803939
 22
227.7352345276887
 32
0.0
 13
-132.69768968803939
 23
227.7352345276887
 33
0.0
210
0.0
220
0.0
230
-1.0
  0
SOLID
  5
347
  8
CONSTRUCTION
  6
CONTINUOUS
 62
     7
 10
133.10976156259869
 20
227.86033718300141
 30
0.0
 11
132.94971315134961
 21
227.7352345276887
 31
0.0
 12
134.23694293487691
 22
227.7352345276887
 32
0.0
 13
134.23694293487691
 23
227.7352345276887
 33
0.0
  0
SOLID
  5
348
  8
CONSTRUCTION
  6
CONTINUOUS
 62
     7
 10
-133.10976156259869
 20
227.86033718300141
 30
0.0
 11
-134.4027594727726
 21
227.86033718300141
 31
0.0
 12
-134.23694293487691
 22
227.7352345276887
 32
0.0
 13
-134.23694293487691
 23
227.7352345276887
 33
0.0
210
0.0
220
0.0
230
-1.0
  0
SOLID
  5
349
  8
CONSTRUCTION
  6
CONTINUOUS
 62
     7
 10
131.34739582049559
 20
227.7352345276887
 30
0.0
 11
131.49608196970269
 21
227.6213750548734
 31
0.0
 12
132.8040485554688
 22
227.6213750548734
 32
0.0
 13
132.8040485554688
 23
227.6213750548734
 33
0.0
210
0.0
220
0.0
230
1.0
  0
SOLID
  5
34A
  8
CONSTRUCTION
  6
CONTINUOUS
 62
     7
 10
-131.34739582049559
 20
227.7352345276887
 30
0.0
 11
-132.69768968803939
 21
227.7352345276887
 31
0.0
 12
-132.8040485554688
 22
227.6213750548734
 32
0.0
 13
-132.8040485554688
 23
227.6213750548734
 33
0.0
210
0.0
220
0.0
230
-1.0
  0
SOLID
  5
34B
  8
CONSTRUCTION
  6
CONTINUOUS
 62
     7
 10
132.94971315134961
 20
227.7352345276887
 30
0.0
 11
132.8040485554688
 21
227.6213750548734
 31
0.0
 12
134.08602860342901
 22
227.6213750548734
 32
0.0
 13
134.08602860342901
 23
227.6213750548734
 33
0.0
  0
SOLID
  5
34C
  8
CONSTRUCTION
  6
CONTINUOUS
 62
     7
 10
-132.94971315134961
 20
227.7352345276887
 30
0.0
 11
-134.23694293487691
 21
227.7352345276887
 31
0.0
 12
-134.08602860342901
 22
227.6213750548734
 32
0.0
 13
-134.08602860342901
 23
227.6213750548734
 33
0.0
210
0.0
220
0.0
230
-1.0
  0
SOLID
  5
34D
  8
CONSTRUCTION
  6
CONTINUOUS
 62
     7
 10
131.49608196970269
 20
227.6213750548734
 30
0.0
 11
132.0893351037333
 21
227.16707928188421
 31
0.0
 12
133.48388509121159
 22
227.16707928188421
 32
0.0
 13
133.48388509121159
 23
227.16707928188421
 33
0.0
  0
SOLID
  5
34E
  8
CONSTRUCTION
  6
CONTINUOUS
 62
     7
 10
-131.49608196970269
 20
227.6213750548734
 30
0.0
 11
-134.08602860342901
 21
227.6213750548734
 31
0.0
 12
-133.48388509121159
 22
227.16707928188421
 32
0.0
 13
-133.48388509121159
 23
227.16707928188421
 33
0.0
210
0.0
220
0.0
230
-1.0
  0
SOLID
  5
34F
  8
CONSTRUCTION
  6
CONTINUOUS
 62
     7
 10
132.0893351037333
 20
227.16707928188421
 30
0.0
 11
132.12715109039331
 21
227.13812091334711
 31
0.0
 12
133.52205837696769
 22
227.13812091334711
 32
0.0
 13
133.52205837696769
 23
227.13812091334711
 33
0.0
210
0.0
220
0.0
230
1.0
  0
SOLID
  5
350
  8
CONSTRUCTION
  6
CONTINUOUS
 62
     7
 10
-132.0893351037333
 20
227.16707928188421
 30
0.0
 11
-133.48388509121159
 21
227.16707928188421
 31
0.0
 12
-133.52205837696769
 22
227.13812091334711
 32
0.0
 13
-133.52205837696769
 23
227.13812091334711
 33
0.0
210
0.0
220
0.0
230
-1.0
  0
SOLID
  5
351
  8
CONSTRUCTION
  6
CONTINUOUS
 62
     7
 10
132.12715109039331
 20
227.13812091334711
 30
0.0
 11
131.4708560559024
 21
226.64933418068409
 31
0.0
 12
134.1663831978172
 22
226.64933418068409
 32
0.0
 13
134.1663831978172
 23
226.64933418068409
 33
0.0
  0
SOLID
  5
352
  8
CONSTRUCTION
  6
CONTINUOUS
 62
     7
 10
-132.12715109039331
 20
227.13812091334711
 30
0.0
 11
-133.52205837696769
 21
227.13812091334711
 31
0.0
 12
-134.1663831978172
 22
226.64933418068409
 32
0.0
 13
-134.1663831978172
 23
226.64933418068409
 33
0.0
210
0.0
220
0.0
230
-1.0
  0
SOLID
  5
353
  8
CONSTRUCTION
  6
CONTINUOUS
 62
     7
 10
131.4708560559024
 20
226.64933418068409
 30
0.0
 11
131.3319227908022
 21
226.5458613016622
 31
0.0
 12
132.6378170233549
 22
226.5458613016622
 32
0.0
 13
132.6378170233549
 23
226.5458613016622
 33
0.0
210
0.0
220
0.0
230
1.0
  0
SOLID
  5
354
  8
CONSTRUCTION
  6
CONTINUOUS
 62
     7
 10
-131.4708560559024
 20
226.64933418068409
 30
0.0
 11
-132.76469497544079
 21
226.64933418068409
 31
0.0
 12
-132.6378170233549
 22
226.5458613016622
 32
0.0
 13
-132.6378170233549
 23
226.5458613016622
 33
0.0
210
0.0
220
0.0
230
-1.0
  0
SOLID
  5
355
  8
CONSTRUCTION
  6
CONTINUOUS
 62
     7
 10
132.76469497544079
 20
226.64933418068409
 30
0.0
 11
132.89622846564299
 21
226.5458613016622
 31
0.0
 12
134.3027824488266
 22
226.5458613016622
 32
0.0
 13
134.3027824488266
 23
226.5458613016622
 33
0.0
210
0.0
220
0.0
230
1.0
  0
SOLID
  5
356
  8
CONSTRUCTION
  6
CONTINUOUS
 62
     7
 10
-132.76469497544079
 20
226.64933418068409
 30
0.0
 11
-134.1663831978172
 21
226.64933418068409
 31
0.0
 12
-134.3027824488266
 22
226.5458613016622
 32
0.0
 13
-134.3027824488266
 23
226.5458613016622
 33
0.0
210
0.0
220
0.0
230
-1.0
  0
SOLID
  5
357
  8
CONSTRUCTION
  6
CONTINUOUS
 62
     7
 10
131.3319227908022
 20
226.5458613016622
 30
0.0
 11
131.2084691530672
 21
226.45391713470579
 31
0.0
 12
132.53210331777939
 22
226.45391713470579
 32
0.0
 13
132.53210331777939
 23
226.45391713470579
 33
0.0
210
0.0
220
0.0
230
1.0
  0
SOLID
  5
358
  8
CONSTRUCTION
  6
CONTINUOUS
 62
     7
 10
-131.3319227908022
 20
226.5458613016622
 30
0.0
 11
-132.6378170233549
 21
226.5458613016622
 31
0.0
 12
-132.53210331777939
 22
226.45391713470579
 32
0.0
 13
-132.53210331777939
 23
226.45391713470579
 33
0.0
210
0.0
220
0.0
230
-1.0
  0
SOLID
  5
359
  8
CONSTRUCTION
  6
CONTINUOUS
 62
     7
 10
132.89622846564299
 20
226.5458613016622
 30
0.0
 11
133.01310679451359
 21
226.45391713470579
 31
0.0
 12
134.4239844065383
 22
226.45391713470579
 32
0.0
 13
134.4239844065383
 23
226.45391713470579
 33
0.0
210
0.0
220
0.0
230
1.0
  0
SOLID
  5
35A
  8
CONSTRUCTION
  6
CONTINUOUS
 62
     7
 10
-132.89622846564299
 20
226.5458613016622
 30
0.0
 11
-134.3027824488266
 21
226.5458613016622
 31
0.0
 12
-134.4239844065383
 22
226.45391713470579
 32
0.0
 13
-134.4239844065383
 23
226.45391713470579
 33
0.0
210
0.0
220
0.0
230
-1.0
  0
SOLID
  5
35B
  8
CONSTRUCTION
  6
CONTINUOUS
 62
     7
 10
131.2084691530672
 20
226.45391713470579
 30
0.0
 11
131.11584697633381
 21
226.38493521535801
 31
0.0
 12
132.44751801638881
 22
226.38493521535801
 32
0.0
 13
132.44751801638881
 23
226.38493521535801
 33
0.0
210
0.0
220
0.0
230
1.0
  0
SOLID
  5
35C
  8
CONSTRUCTION
  6
CONTINUOUS
 62
     7
 10
-131.2084691530672
 20
226.45391713470579
 30
0.0
 11
-132.53210331777939
 21
226.45391713470579
 31
0.0
 12
-132.44751801638881
 22
226.38493521535801
 32
0.0
 13
-132.44751801638881
 23
226.38493521535801
 33
0.0
210
0.0
220
0.0
230
-1.0
  0
SOLID
  5
35D
  8
CONSTRUCTION
  6
CONTINUOUS
 62
     7
 10
133.01310679451359
 20
226.45391713470579
 30
0.0
 11
133.1007957879817
 21
226.38493521535801
 31
0.0
 12
134.51491724054461
 22
226.38493521535801
 32
0.0
 13
134.51491724054461
 23
226.38493521535801
 33
0.0
210
0.0
220
0.0
230
1.0
  0
SOLID
  5
35E
  8
CONSTRUCTION
  6
CONTINUOUS
 62
     7
 10
-133.01310679451359
 20
226.45391713470579
 30
0.0
 11
-134.4239844065383
 21
226.45391713470579
 31
0.0
 12
-134.51491724054461
 22
226.38493521535801
 32
0.0
 13
-134.51491724054461
 23
226.38493521535801
 33
0.0
210
0.0
220
0.0
230
-1.0
  0
SOLID
  5
35F
  8
CONSTRUCTION
  6
CONTINUOUS
 62
     7
 10
131.11584697633381
 20
226.38493521535801
 30
0.0
 11
131.0892327083879
 21
226.36511379299779
 31
0.0
 12
132.41837190803119
 22
226.36511379299779
 32
0.0
 13
132.41837190803119
 23
226.36511379299779
 33
0.0
210
0.0
220
0.0
230
1.0
  0
SOLID
  5
360
  8
CONSTRUCTION
  6
CONTINUOUS
 62
     7
 10
-131.11584697633381
 20
226.38493521535801
 30
0.0
 11
-132.44751801638881
 21
226.38493521535801
 31
0.0
 12
-132.41837190803119
 22
226.36511379299779
 32
0.0
 13
-132.41837190803119
 23
226.36511379299779
 33
0.0
210
0.0
220
0.0
230
-1.0
  0
SOLID
  5
361
  8
CONSTRUCTION
  6
CONTINUOUS
 62
     7
 10
133.1007957879817
 20
226.38493521535801
 30
0.0
 11
133.12599254377361
 21
226.36511379299779
 31
0.0
 12
134.54104608889031
 22
226.36511379299779
 32
0.0
 13
134.54104608889031
 23
226.36511379299779
 33
0.0
210
0.0
220
0.0
230
1.0
  0
SOLID
  5
362
  8
CONSTRUCTION
  6
CONTINUOUS
 62
     7
 10
-133.1007957879817
 20
226.38493521535801
 30
0.0
 11
-134.51491724054461
 21
226.38493521535801
 31
0.0
 12
-134.54104608889031
 22
226.36511379299779
 32
0.0
 13
-134.54104608889031
 23
226.36511379299779
 33
0.0
210
0.0
220
0.0
230
-1.0
  0
SOLID
  5
363
  8
CONSTRUCTION
  6
CONTINUOUS
 62
     7
 10
131.0892327083879
 20
226.36511379299779
 30
0.0
 11
131.03857663323649
 21
226.3273868315529
 31
0.0
 12
132.3628968726731
 22
226.3273868315529
 32
0.0
 13
132.3628968726731
 23
226.3273868315529
 33
0.0
210
0.0
220
0.0
230
1.0
  0
SOLID
  5
364
  8
CONSTRUCTION
  6
CONTINUOUS
 62
     7
 10
-131.0892327083879
 20
226.36511379299779
 30
0.0
 11
-132.41837190803119
 21
226.36511379299779
 31
0.0
 12
-132.3628968726731
 22
226.3273868315529
 32
0.0
 13
-132.3628968726731
 23
226.3273868315529
 33
0.0
210
0.0
220
0.0
230
-1.0
  0
SOLID
  5
365
  8
CONSTRUCTION
  6
CONTINUOUS
 62
     7
 10
133.12599254377361
 20
226.36511379299779
 30
0.0
 11
133.17541405497019
 21
226.3273868315529
 31
0.0
 12
134.59077824414291
 22
226.3273868315529
 32
0.0
 13
134.59077824414291
 23
226.3273868315529
 33
0.0
210
0.0
220
0.0
230
1.0
  0
SOLID
  5
366
  8
CONSTRUCTION
  6
CONTINUOUS
 62
     7
 10
-133.12599254377361
 20
226.36511379299779
 30
0.0
 11
-134.54104608889031
 21
226.36511379299779
 31
0.0
 12
-134.59077824414291
 22
226.3273868315529
 32
0.0
 13
-134.59077824414291
 23
226.3273868315529
 33
0.0
210
0.0
220
0.0
230
-1.0
  0
SOLID
  5
367
  8
CONSTRUCTION
  6
CONTINUOUS
 62
     7
 10
131.03857663323649
 20
226.3273868315529
 30
0.0
 11
128.8542380977791
 21
224.70056407705121
 31
0.0
 12
130.22313149051661
 22
224.70056407705121
 32
0.0
 13
130.22313149051661
 23
224.70056407705121
 33
0.0
210
0.0
220
0.0
230
1.0
  0
SOLID
  5
368
  8
CONSTRUCTION
  6
CONTINUOUS
 62
     7
 10
-131.03857663323649
 20
226.3273868315529
 30
0.0
 11
-132.3628968726731
 21
226.3273868315529
 31
0.0
 12
-130.22313149051661
 22
224.70056407705121
 32
0.0
 13
-130.22313149051661
 23
224.70056407705121
 33
0.0
210
0.0
220
0.0
230
-1.0
  0
SOLID
  5
369
  8
CONSTRUCTION
  6
CONTINUOUS
 62
     7
 10
133.17541405497019
 20
226.3273868315529
 30
0.0
 11
135.30651700885841
 21
224.70056407705121
 31
0.0
 12
136.7352764676059
 22
224.70056407705121
 32
0.0
 13
136.7352764676059
 23
224.70056407705121
 33
0.0
210
0.0
220
0.0
230
1.0
  0
SOLID
  5
36A
  8
CONSTRUCTION
  6
CONTINUOUS
 62
     7
 10
-133.17541405497019
 20
226.3273868315529
 30
0.0
 11
-134.59077824414291
 21
226.3273868315529
 31
0.0
 12
-136.7352764676059
 22
224.70056407705121
 32
0.0
 13
-136.7352764676059
 23
224.70056407705121
 33
0.0
210
0.0
220
0.0
230
-1.0
  0
SOLID
  5
36B
  8
CONSTRUCTION
  6
CONTINUOUS
 62
     7
 10
128.8542380977791
 20
224.70056407705121
 30
0.0
 11
128.84567591793879
 21
224.6941872500318
 31
0.0
 12
130.21474402871939
 22
224.6941872500318
 32
0.0
 13
130.21474402871939
 23
224.6941872500318
 33
0.0
210
0.0
220
0.0
230
1.0
  0
SOLID
  5
36C
  8
CONSTRUCTION
  6
CONTINUOUS
 62
     7
 10
-128.8542380977791
 20
224.70056407705121
 30
0.0
 11
-130.22313149051661
 21
224.70056407705121
 31
0.0
 12
-130.21474402871939
 22
224.6941872500318
 32
0.0
 13
-130.21474402871939
 23
224.6941872500318
 33
0.0
210
0.0
220
0.0
230
-1.0
  0
SOLID
  5
36D
  8
CONSTRUCTION
  6
CONTINUOUS
 62
     7
 10
-135.30651700885841
 20
224.70056407705121
 30
0.0
 11
-136.7352764676059
 21
224.70056407705121
 31
0.0
 12
-135.3148705156309
 22
224.6941872500318
 32
0.0
 13
-135.3148705156309
 23
224.6941872500318
 33
0.0
210
0.0
220
0.0
230
-1.0
  0
SOLID
  5
36E
  8
CONSTRUCTION
  6
CONTINUOUS
 62
     7
 10
128.84567591793879
 20
224.6941872500318
 30
0.0
 11
128.81474983553039
 21
224.67115453154389
 31
0.0
 12
130.18444901745221
 22
224.67115453154389
 32
0.0
 13
130.18444901745221
 23
224.67115453154389
 33
0.0
  0
SOLID
  5
36F
  8
CONSTRUCTION
  6
CONTINUOUS
 62
     7
 10
-128.84567591793879
 20
224.6941872500318
 30
0.0
 11
-130.21474402871939
 21
224.6941872500318
 31
0.0
 12
-130.18444901745221
 22
224.67115453154389
 32
0.0
 13
-130.18444901745221
 23
224.67115453154389
 33
0.0
210
0.0
220
0.0
230
-1.0
  0
SOLID
  5
370
  8
CONSTRUCTION
  6
CONTINUOUS
 62
     7
 10
-128.81474983553039
 20
224.67115453154389
 30
0.0
 11
-130.18444901745221
 21
224.67115453154389
 31
0.0
 12
-128.80644324314801
 22
224.66496805756989
 32
0.0
 13
-128.80644324314801
 23
224.66496805756989
 33
0.0
210
0.0
220
0.0
230
-1.0
  0
LINE
  5
371
  8
CONSTRUCTION
  6
CONTINUOUS
 62
     7
 10
136.4872367677788
 20
229.43300085004969
 30
0.0
 11
135.19403134881651
 21
229.42719508216641
 31
0.0
  0
LINE
  5
372
  8
CONSTRUCTION
  6
CONTINUOUS
 62
     7
 10
136.47954154877789
 20
229.42719508216641
 30
0.0
 11
136.4872367677788
 21
229.43300085004969
 31
0.0
  0
LINE
  5
373
  8
CONSTRUCTION
  6
CONTINUOUS
 62
     7
 10
135.19403134881651
 20
229.42719508216641
 30
0.0
 11
135.16590298568499
 21
229.4061610706548
 31
0.0
  0
LINE
  5
374
  8
CONSTRUCTION
  6
CONTINUOUS
 62
     7
 10
136.47954154877789
 20
229.42719508216641
 30
0.0
 11
136.45166214879069
 21
229.4061610706548
 31
0.0
  0
LINE
  5
375
  8
CONSTRUCTION
  6
CONTINUOUS
 62
     7
 10
130.50881171618221
 20
229.4061610706548
 30
0.0
 11
129.17320611954889
 21
229.4001649497261
 31
0.0
  0
LINE
  5
376
  8
CONSTRUCTION
  6
CONTINUOUS
 62
     7
 10
130.51677450654699
 20
229.4001649497261
 30
0.0
 11
130.50881171618221
 21
229.4061610706548
 31
0.0
  0
LINE
  5
377
  8
CONSTRUCTION
  6
CONTINUOUS
 62
     7
 10
135.16590298568499
 20
229.4061610706548
 30
0.0
 11
135.15788449302761
 21
229.4001649497261
 31
0.0
  0
LINE
  5
378
  8
CONSTRUCTION
  6
CONTINUOUS
 62
     7
 10
136.45166214879069
 20
229.4061610706548
 30
0.0
 11
136.4437146275273
 21
229.4001649497261
 31
0.0
  0
LINE
  5
379
  8
CONSTRUCTION
  6
CONTINUOUS
 62
     7
 10
129.17320611954889
 20
229.4001649497261
 30
0.0
 11
130.75352124363289
 21
228.1900061832911
 31
0.0
  0
LINE
  5
37A
  8
CONSTRUCTION
  6
CONTINUOUS
 62
     7
 10
130.51677450654699
 20
229.4001649497261
 30
0.0
 11
132.12385359647379
 21
228.1900061832911
 31
0.0
  0
LINE
  5
37B
  8
CONSTRUCTION
  6
CONTINUOUS
 62
     7
 10
135.15788449302761
 20
229.4001649497261
 30
0.0
 11
133.53956336536021
 21
228.1900061832911
 31
0.0
  0
LINE
  5
37C
  8
CONSTRUCTION
  6
CONTINUOUS
 62
     7
 10
136.4437146275273
 20
229.4001649497261
 30
0.0
 11
134.83971720274999
 21
228.1900061832911
 31
0.0
  0
LINE
  5
37D
  8
CONSTRUCTION
  6
CONTINUOUS
 62
     7
 10
130.75352124363289
 20
228.1900061832911
 30
0.0
 11
130.79023476442609
 21
228.1618920506366
 31
0.0
  0
LINE
  5
37E
  8
CONSTRUCTION
  6
CONTINUOUS
 62
     7
 10
132.12385359647379
 20
228.1900061832911
 30
0.0
 11
132.15998741087969
 21
228.1618920506366
 31
0.0
  0
LINE
  5
37F
  8
CONSTRUCTION
  6
CONTINUOUS
 62
     7
 10
133.53956336536021
 20
228.1900061832911
 30
0.0
 11
133.50196689775379
 21
228.1618920506366
 31
0.0
  0
LINE
  5
380
  8
CONSTRUCTION
  6
CONTINUOUS
 62
     7
 10
134.83971720274999
 20
228.1900061832911
 30
0.0
 11
134.80245350014451
 21
228.1618920506366
 31
0.0
  0
LINE
  5
381
  8
CONSTRUCTION
  6
CONTINUOUS
 62
     7
 10
130.79023476442609
 20
228.1618920506366
 30
0.0
 11
130.9910462166647
 21
228.00811655635471
 31
0.0
  0
LINE
  5
382
  8
CONSTRUCTION
  6
CONTINUOUS
 62
     7
 10
132.15998741087969
 20
228.1618920506366
 30
0.0
 11
132.35762805086719
 21
228.00811655635471
 31
0.0
  0
LINE
  5
383
  8
CONSTRUCTION
  6
CONTINUOUS
 62
     7
 10
133.50196689775379
 20
228.1618920506366
 30
0.0
 11
133.30166232341631
 21
228.00811655635471
 31
0.0
  0
LINE
  5
384
  8
CONSTRUCTION
  6
CONTINUOUS
 62
     7
 10
134.80245350014451
 20
228.1618920506366
 30
0.0
 11
134.598632725827
 21
228.00811655635471
 31
0.0
  0
LINE
  5
385
  8
CONSTRUCTION
  6
CONTINUOUS
 62
     7
 10
130.9910462166647
 20
228.00811655635471
 30
0.0
 11
131.1506858909496
 21
227.88586919672221
 31
0.0
  0
LINE
  5
386
  8
CONSTRUCTION
  6
CONTINUOUS
 62
     7
 10
132.35762805086719
 20
228.00811655635471
 30
0.0
 11
132.51584942243949
 21
227.88586919672221
 31
0.0
  0
LINE
  5
387
  8
CONSTRUCTION
  6
CONTINUOUS
 62
     7
 10
133.30166232341631
 20
228.00811655635471
 30
0.0
 11
133.14242560335609
 21
227.88586919672221
 31
0.0
  0
LINE
  5
388
  8
CONSTRUCTION
  6
CONTINUOUS
 62
     7
 10
134.598632725827
 20
228.00811655635471
 30
0.0
 11
134.436600721866
 21
227.88586919672221
 31
0.0
  0
LINE
  5
389
  8
CONSTRUCTION
  6
CONTINUOUS
 62
     7
 10
131.1506858909496
 20
227.88586919672221
 30
0.0
 11
131.18402748921781
 21
227.86033718300141
 31
0.0
  0
LINE
  5
38A
  8
CONSTRUCTION
  6
CONTINUOUS
 62
     7
 10
132.51584942243949
 20
227.88586919672221
 30
0.0
 11
132.54889480061399
 21
227.86033718300141
 31
0.0
  0
LINE
  5
38B
  8
CONSTRUCTION
  6
CONTINUOUS
 62
     7
 10
133.14242560335609
 20
227.88586919672221
 30
0.0
 11
133.10976156259869
 21
227.86033718300141
 31
0.0
  0
LINE
  5
38C
  8
CONSTRUCTION
  6
CONTINUOUS
 62
     7
 10
134.436600721866
 20
227.88586919672221
 30
0.0
 11
134.4027594727726
 21
227.86033718300141
 31
0.0
  0
LINE
  5
38D
  8
CONSTRUCTION
  6
CONTINUOUS
 62
     7
 10
131.18402748921781
 20
227.86033718300141
 30
0.0
 11
131.34739582049559
 21
227.7352345276887
 31
0.0
  0
LINE
  5
38E
  8
CONSTRUCTION
  6
CONTINUOUS
 62
     7
 10
132.54889480061399
 20
227.86033718300141
 30
0.0
 11
132.69768968803939
 21
227.7352345276887
 31
0.0
  0
LINE
  5
38F
  8
CONSTRUCTION
  6
CONTINUOUS
 62
     7
 10
133.10976156259869
 20
227.86033718300141
 30
0.0
 11
132.94971315134961
 21
227.7352345276887
 31
0.0
  0
LINE
  5
390
  8
CONSTRUCTION
  6
CONTINUOUS
 62
     7
 10
134.4027594727726
 20
227.86033718300141
 30
0.0
 11
134.23694293487691
 21
227.7352345276887
 31
0.0
  0
LINE
  5
391
  8
CONSTRUCTION
  6
CONTINUOUS
 62
     7
 10
131.34739582049559
 20
227.7352345276887
 30
0.0
 11
131.49608196970269
 21
227.6213750548734
 31
0.0
  0
LINE
  5
392
  8
CONSTRUCTION
  6
CONTINUOUS
 62
     7
 10
132.69768968803939
 20
227.7352345276887
 30
0.0
 11
132.8040485554688
 21
227.6213750548734
 31
0.0
  0
LINE
  5
393
  8
CONSTRUCTION
  6
CONTINUOUS
 62
     7
 10
132.94971315134961
 20
227.7352345276887
 30
0.0
 11
132.8040485554688
 21
227.6213750548734
 31
0.0
  0
LINE
  5
394
  8
CONSTRUCTION
  6
CONTINUOUS
 62
     7
 10
134.23694293487691
 20
227.7352345276887
 30
0.0
 11
134.08602860342901
 21
227.6213750548734
 31
0.0
  0
LINE
  5
395
  8
CONSTRUCTION
  6
CONTINUOUS
 62
     7
 10
131.49608196970269
 20
227.6213750548734
 30
0.0
 11
132.0893351037333
 21
227.16707928188421
 31
0.0
  0
LINE
  5
396
  8
CONSTRUCTION
  6
CONTINUOUS
 62
     7
 10
134.08602860342901
 20
227.6213750548734
 30
0.0
 11
133.48388509121159
 21
227.16707928188421
 31
0.0
  0
LINE
  5
397
  8
CONSTRUCTION
  6
CONTINUOUS
 62
     7
 10
132.0893351037333
 20
227.16707928188421
 30
0.0
 11
132.12715109039331
 21
227.13812091334711
 31
0.0
  0
LINE
  5
398
  8
CONSTRUCTION
  6
CONTINUOUS
 62
     7
 10
133.48388509121159
 20
227.16707928188421
 30
0.0
 11
133.52205837696769
 21
227.13812091334711
 31
0.0
  0
LINE
  5
399
  8
CONSTRUCTION
  6
CONTINUOUS
 62
     7
 10
132.12715109039331
 20
227.13812091334711
 30
0.0
 11
131.4708560559024
 21
226.64933418068409
 31
0.0
  0
LINE
  5
39A
  8
CONSTRUCTION
  6
CONTINUOUS
 62
     7
 10
133.52205837696769
 20
227.13812091334711
 30
0.0
 11
134.1663831978172
 21
226.64933418068409
 31
0.0
  0
LINE
  5
39B
  8
CONSTRUCTION
  6
CONTINUOUS
 62
     7
 10
131.4708560559024
 20
226.64933418068409
 30
0.0
 11
131.3319227908022
 21
226.5458613016622
 31
0.0
  0
LINE
  5
39C
  8
CONSTRUCTION
  6
CONTINUOUS
 62
     7
 10
134.1663831978172
 20
226.64933418068409
 30
0.0
 11
134.3027824488266
 21
226.5458613016622
 31
0.0
  0
LINE
  5
39D
  8
CONSTRUCTION
  6
CONTINUOUS
 62
     7
 10
131.3319227908022
 20
226.5458613016622
 30
0.0
 11
131.2084691530672
 21
226.45391713470579
 31
0.0
  0
LINE
  5
39E
  8
CONSTRUCTION
  6
CONTINUOUS
 62
     7
 10
132.6378170233549
 20
226.5458613016622
 30
0.0
 11
132.53210331777939
 21
226.45391713470579
 31
0.0
  0
LINE
  5
39F
  8
CONSTRUCTION
  6
CONTINUOUS
 62
     7
 10
132.89622846564299
 20
226.5458613016622
 30
0.0
 11
133.01310679451359
 21
226.45391713470579
 31
0.0
  0
LINE
  5
3A0
  8
CONSTRUCTION
  6
CONTINUOUS
 62
     7
 10
134.3027824488266
 20
226.5458613016622
 30
0.0
 11
134.4239844065383
 21
226.45391713470579
 31
0.0
  0
LINE
  5
3A1
  8
CONSTRUCTION
  6
CONTINUOUS
 62
     7
 10
131.2084691530672
 20
226.45391713470579
 30
0.0
 11
131.11584697633381
 21
226.38493521535801
 31
0.0
  0
LINE
  5
3A2
  8
CONSTRUCTION
  6
CONTINUOUS
 62
     7
 10
132.53210331777939
 20
226.45391713470579
 30
0.0
 11
132.44751801638881
 21
226.38493521535801
 31
0.0
  0
LINE
  5
3A3
  8
CONSTRUCTION
  6
CONTINUOUS
 62
     7
 10
133.01310679451359
 20
226.45391713470579
 30
0.0
 11
133.1007957879817
 21
226.38493521535801
 31
0.0
  0
LINE
  5
3A4
  8
CONSTRUCTION
  6
CONTINUOUS
 62
     7
 10
134.4239844065383
 20
226.45391713470579
 30
0.0
 11
134.51491724054461
 21
226.38493521535801
 31
0.0
  0
LINE
  5
3A5
  8
CONSTRUCTION
  6
CONTINUOUS
 62
     7
 10
131.11584697633381
 20
226.38493521535801
 30
0.0
 11
131.0892327083879
 21
226.36511379299779
 31
0.0
  0
LINE
  5
3A6
  8
CONSTRUCTION
  6
CONTINUOUS
 62
     7
 10
132.44751801638881
 20
226.38493521535801
 30
0.0
 11
132.41837190803119
 21
226.36511379299779
 31
0.0
  0
LINE
  5
3A7
  8
CONSTRUCTION
  6
CONTINUOUS
 62
     7
 10
133.1007957879817
 20
226.38493521535801
 30
0.0
 11
133.12599254377361
 21
226.36511379299779
 31
0.0
  0
LINE
  5
3A8
  8
CONSTRUCTION
  6
CONTINUOUS
 62
     7
 10
134.51491724054461
 20
226.38493521535801
 30
0.0
 11
134.54104608889031
 21
226.36511379299779
 31
0.0
  0
LINE
  5
3A9
  8
CONSTRUCTION
  6
CONTINUOUS
 62
     7
 10
131.0892327083879
 20
226.36511379299779
 30
0.0
 11
131.03857663323649
 21
226.3273868315529
 31
0.0
  0
LINE
  5
3AA
  8
CONSTRUCTION
  6
CONTINUOUS
 62
     7
 10
132.41837190803119
 20
226.36511379299779
 30
0.0
 11
132.3628968726731
 21
226.3273868315529
 31
0.0
  0
LINE
  5
3AB
  8
CONSTRUCTION
  6
CONTINUOUS
 62
     7
 10
133.12599254377361
 20
226.36511379299779
 30
0.0
 11
133.17541405497019
 21
226.3273868315529
 31
0.0
  0
LINE
  5
3AC
  8
CONSTRUCTION
  6
CONTINUOUS
 62
     7
 10
134.54104608889031
 20
226.36511379299779
 30
0.0
 11
134.59077824414291
 21
226.3273868315529
 31
0.0
  0
LINE
  5
3AD
  8
CONSTRUCTION
  6
CONTINUOUS
 62
     7
 10
131.03857663323649
 20
226.3273868315529
 30
0.0
 11
128.8542380977791
 21
224.70056407705121
 31
0.0
  0
LINE
  5
3AE
  8
CONSTRUCTION
  6
CONTINUOUS
 62
     7
 10
132.3628968726731
 20
226.3273868315529
 30
0.0
 11
130.22313149051661
 21
224.70056407705121
 31
0.0
  0
LINE
  5
3AF
  8
CONSTRUCTION
  6
CONTINUOUS
 62
     7
 10
133.17541405497019
 20
226.3273868315529
 30
0.0
 11
135.30651700885841
 21
224.70056407705121
 31
0.0
  0
LINE
  5
3B0
  8
CONSTRUCTION
  6
CONTINUOUS
 62
     7
 10
134.59077824414291
 20
226.3273868315529
 30
0.0
 11
136.7352764676059
 21
224.70056407705121
 31
0.0
  0
LINE
  5
3B1
  8
CONSTRUCTION
  6
CONTINUOUS
 62
     7
 10
128.8542380977791
 20
224.70056407705121
 30
0.0
 11
128.84567591793879
 21
224.6941872500318
 31
0.0
  0
LINE
  5
3B2
  8
CONSTRUCTION
  6
CONTINUOUS
 62
     7
 10
130.22313149051661
 20
224.70056407705121
 30
0.0
 11
130.21474402871939
 21
224.6941872500318
 31
0.0
  0
LINE
  5
3B3
  8
CONSTRUCTION
  6
CONTINUOUS
 62
     7
 10
136.7352764676059
 20
224.70056407705121
 30
0.0
 11
135.3148705156309
 21
224.6941872500318
 31
0.0
  0
LINE
  5
3B4
  8
CONSTRUCTION
  6
CONTINUOUS
 62
     7
 10
135.3148705156309
 20
224.6941872500318
 30
0.0
 11
135.30651700885841
 21
224.70056407705121
 31
0.0
  0
LINE
  5
3B5
  8
CONSTRUCTION
  6
CONTINUOUS
 62
     7
 10
128.84567591793879
 20
224.6941872500318
 30
0.0
 11
128.81474983553039
 21
224.67115453154389
 31
0.0
  0
LINE
  5
3B6
  8
CONSTRUCTION
  6
CONTINUOUS
 62
     7
 10
130.21474402871939
 20
224.6941872500318
 30
0.0
 11
130.18444901745221
 21
224.67115453154389
 31
0.0
  0
LINE
  5
3B7
  8
CONSTRUCTION
  6
CONTINUOUS
 62
     7
 10
130.18444901745221
 20
224.67115453154389
 30
0.0
 11
128.80644324314801
 21
224.66496805756989
 31
0.0
  0
LINE
  5
3B8
  8
CONSTRUCTION
  6
CONTINUOUS
 62
     7
 10
128.80644324314801
 20
224.66496805756989
 30
0.0
 11
128.81474983553039
 21
224.67115453154389
 31
0.0
  0
ENDBLK
  5
3BA
  8
0
 62
     7
  0
BLOCK
  8
0
 62
     7
  2
*U8
 70
     1
 10
0.0
 20
0.0
 30
0.0
  3
*U8
  1

  0
SOLID
  5
3BC
  8
CONSTRUCTION
  6
CONTINUOUS
 62
     7
 10
137.71648558599381
 20
230.62297560573259
 30
0.0
 11
137.71648558599381
 21
230.62297560573259
 31
0.0
 12
138.17804808599371
 22
230.62297560573259
 32
0.0
 13
138.17804808599371
 23
230.62297560573259
 33
0.0
210
0.0
220
0.0
230
1.0
  0
SOLID
  5
3BD
  8
CONSTRUCTION
  6
CONTINUOUS
 62
     7
 10
137.71648558599381
 20
230.62297560573259
 30
0.0
 11
137.71648558599381
 21
230.6218818557326
 31
0.0
 12
138.2174230859938
 22
230.6218818557326
 32
0.0
 13
138.2174230859938
 23
230.6218818557326
 33
0.0
  0
SOLID
  5
3BE
  8
CONSTRUCTION
  6
CONTINUOUS
 62
     7
 10
-137.71648558599381
 20
230.62297560573259
 30
0.0
 11
-138.17804808599371
 21
230.62297560573259
 31
0.0
 12
-138.2174230859938
 22
230.6218818557326
 32
0.0
 13
-138.2174230859938
 23
230.6218818557326
 33
0.0
210
0.0
220
0.0
230
-1.0
  0
SOLID
  5
3BF
  8
CONSTRUCTION
  6
CONTINUOUS
 62
     7
 10
137.71648558599381
 20
230.6218818557326
 30
0.0
 11
137.71648558599381
 21
230.61860060573261
 31
0.0
 12
138.25351683599371
 22
230.61860060573261
 32
0.0
 13
138.25351683599371
 23
230.61860060573261
 33
0.0
210
0.0
220
0.0
230
1.0
  0
SOLID
  5
3C0
  8
CONSTRUCTION
  6
CONTINUOUS
 62
     7
 10
-137.71648558599381
 20
230.6218818557326
 30
0.0
 11
-138.2174230859938
 21
230.6218818557326
 31
0.0
 12
-138.25351683599371
 22
230.61860060573261
 32
0.0
 13
-138.25351683599371
 23
230.61860060573261
 33
0.0
210
0.0
220
0.0
230
-1.0
  0
SOLID
  5
3C1
  8
CONSTRUCTION
  6
CONTINUOUS
 62
     7
 10
137.71648558599381
 20
230.61860060573261
 30
0.0
 11
137.71648558599381
 21
230.6131318557326
 31
0.0
 12
138.28742308599379
 22
230.6131318557326
 32
0.0
 13
138.28742308599379
 23
230.6131318557326
 33
0.0
210
0.0
220
0.0
230
1.0
  0
SOLID
  5
3C2
  8
CONSTRUCTION
  6
CONTINUOUS
 62
     7
 10
-137.71648558599381
 20
230.61860060573261
 30
0.0
 11
-138.25351683599371
 21
230.61860060573261
 31
0.0
 12
-138.28742308599379
 22
230.6131318557326
 32
0.0
 13
-138.28742308599379
 23
230.6131318557326
 33
0.0
210
0.0
220
0.0
230
-1.0
  0
SOLID
  5
3C3
  8
CONSTRUCTION
  6
CONTINUOUS
 62
     7
 10
137.71648558599381
 20
230.6131318557326
 30
0.0
 11
137.71648558599381
 21
230.60547560573261
 31
0.0
 12
138.31914183599369
 22
230.60547560573261
 32
0.0
 13
138.31914183599369
 23
230.60547560573261
 33
0.0
210
0.0
220
0.0
230
1.0
  0
SOLID
  5
3C4
  8
CONSTRUCTION
  6
CONTINUOUS
 62
     7
 10
-137.71648558599381
 20
230.6131318557326
 30
0.0
 11
-138.28742308599379
 21
230.6131318557326
 31
0.0
 12
-138.31914183599369
 22
230.60547560573261
 32
0.0
 13
-138.31914183599369
 23
230.60547560573261
 33
0.0
210
0.0
220
0.0
230
-1.0
  0
SOLID
  5
3C5
  8
CONSTRUCTION
  6
CONTINUOUS
 62
     7
 10
137.71648558599381
 20
230.60547560573261
 30
0.0
 11
137.71648558599381
 21
230.59672560573259
 31
0.0
 12
138.34757933599369
 22
230.59672560573259
 32
0.0
 13
138.34757933599369
 23
230.59672560573259
 33
0.0
210
0.0
220
0.0
230
1.0
  0
SOLID
  5
3C6
  8
CONSTRUCTION
  6
CONTINUOUS
 62
     7
 10
-137.71648558599381
 20
230.60547560573261
 30
0.0
 11
-138.31914183599369
 21
230.60547560573261
 31
0.0
 12
-138.34757933599369
 22
230.59672560573259
 32
0.0
 13
-138.34757933599369
 23
230.59672560573259
 33
0.0
210
0.0
220
0.0
230
-1.0
  0
SOLID
  5
3C7
  8
CONSTRUCTION
  6
CONTINUOUS
 62
     7
 10
137.71648558599381
 20
230.59672560573259
 30
0.0
 11
137.71648558599381
 21
230.58469435573261
 31
0.0
 12
138.37273558599369
 22
230.58469435573261
 32
0.0
 13
138.37273558599369
 23
230.58469435573261
 33
0.0
210
0.0
220
0.0
230
1.0
  0
SOLID
  5
3C8
  8
CONSTRUCTION
  6
CONTINUOUS
 62
     7
 10
-137.71648558599381
 20
230.59672560573259
 30
0.0
 11
-138.34757933599369
 21
230.59672560573259
 31
0.0
 12
-138.37273558599369
 22
230.58469435573261
 32
0.0
 13
-138.37273558599369
 23
230.58469435573261
 33
0.0
210
0.0
220
0.0
230
-1.0
  0
SOLID
  5
3C9
  8
CONSTRUCTION
  6
CONTINUOUS
 62
     7
 10
137.71648558599381
 20
230.58469435573261
 30
0.0
 11
137.71648558599381
 21
230.57156935573261
 31
0.0
 12
138.39570433599371
 22
230.57156935573261
 32
0.0
 13
138.39570433599371
 23
230.57156935573261
 33
0.0
210
0.0
220
0.0
230
1.0
  0
SOLID
  5
3CA
  8
CONSTRUCTION
  6
CONTINUOUS
 62
     7
 10
-137.71648558599381
 20
230.58469435573261
 30
0.0
 11
-138.37273558599369
 21
230.58469435573261
 31
0.0
 12
-138.39570433599371
 22
230.57156935573261
 32
0.0
 13
-138.39570433599371
 23
230.57156935573261
 33
0.0
210
0.0
220
0.0
230
-1.0
  0
SOLID
  5
3CB
  8
CONSTRUCTION
  6
CONTINUOUS
 62
     7
 10
137.71648558599381
 20
230.57156935573261
 30
0.0
 11
137.71648558599381
 21
230.55516310573259
 31
0.0
 12
138.4153918359938
 22
230.55516310573259
 32
0.0
 13
138.4153918359938
 23
230.55516310573259
 33
0.0
  0
SOLID
  5
3CC
  8
CONSTRUCTION
  6
CONTINUOUS
 62
     7
 10
-137.71648558599381
 20
230.57156935573261
 30
0.0
 11
-138.39570433599371
 21
230.57156935573261
 31
0.0
 12
-138.4153918359938
 22
230.55516310573259
 32
0.0
 13
-138.4153918359938
 23
230.55516310573259
 33
0.0
210
0.0
220
0.0
230
-1.0
  0
SOLID
  5
3CD
  8
CONSTRUCTION
  6
CONTINUOUS
 62
     7
 10
137.71648558599381
 20
230.55516310573259
 30
0.0
 11
137.71648558599381
 21
230.53766310573261
 31
0.0
 12
138.4328918359937
 22
230.53766310573261
 32
0.0
 13
138.4328918359937
 23
230.53766310573261
 33
0.0
  0
SOLID
  5
3CE
  8
CONSTRUCTION
  6
CONTINUOUS
 62
     7
 10
-137.71648558599381
 20
230.55516310573259
 30
0.0
 11
-138.4153918359938
 21
230.55516310573259
 31
0.0
 12
-138.4328918359937
 22
230.53766310573261
 32
0.0
 13
-138.4328918359937
 23
230.53766310573261
 33
0.0
210
0.0
220
0.0
230
-1.0
  0
SOLID
  5
3CF
  8
CONSTRUCTION
  6
CONTINUOUS
 62
     7
 10
137.71648558599381
 20
230.53766310573261
 30
0.0
 11
137.71648558599381
 21
230.5190693557326
 31
0.0
 12
138.44820433599369
 22
230.5190693557326
 32
0.0
 13
138.44820433599369
 23
230.5190693557326
 33
0.0
210
0.0
220
0.0
230
1.0
  0
SOLID
  5
3D0
  8
CONSTRUCTION
  6
CONTINUOUS
 62
     7
 10
-137.71648558599381
 20
230.53766310573261
 30
0.0
 11
-138.4328918359937
 21
230.53766310573261
 31
0.0
 12
-138.44820433599369
 22
230.5190693557326
 32
0.0
 13
-138.44820433599369
 23
230.5190693557326
 33
0.0
210
0.0
220
0.0
230
-1.0
  0
SOLID
  5
3D1
  8
CONSTRUCTION
  6
CONTINUOUS
 62
     7
 10
137.71648558599381
 20
230.5190693557326
 30
0.0
 11
137.71648558599381
 21
230.49938185573259
 31
0.0
 12
138.4613293359937
 22
230.49938185573259
 32
0.0
 13
138.4613293359937
 23
230.49938185573259
 33
0.0
  0
SOLID
  5
3D2
  8
CONSTRUCTION
  6
CONTINUOUS
 62
     7
 10
-137.71648558599381
 20
230.5190693557326
 30
0.0
 11
-138.44820433599369
 21
230.5190693557326
 31
0.0
 12
-138.4613293359937
 22
230.49938185573259
 32
0.0
 13
-138.4613293359937
 23
230.49938185573259
 33
0.0
210
0.0
220
0.0
230
-1.0
  0
SOLID
  5
3D3
  8
CONSTRUCTION
  6
CONTINUOUS
 62
     7
 10
137.71648558599381
 20
230.49938185573259
 30
0.0
 11
137.71648558599381
 21
230.47860060573259
 31
0.0
 12
138.47226683599371
 22
230.47860060573259
 32
0.0
 13
138.47226683599371
 23
230.47860060573259
 33
0.0
210
0.0
220
0.0
230
1.0
  0
SOLID
  5
3D4
  8
CONSTRUCTION
  6
CONTINUOUS
 62
     7
 10
-137.71648558599381
 20
230.49938185573259
 30
0.0
 11
-138.4613293359937
 21
230.49938185573259
 31
0.0
 12
-138.47226683599371
 22
230.47860060573259
 32
0.0
 13
-138.47226683599371
 23
230.47860060573259
 33
0.0
210
0.0
220
0.0
230
-1.0
  0
SOLID
  5
3D5
  8
CONSTRUCTION
  6
CONTINUOUS
 62
     7
 10
137.71648558599381
 20
230.47860060573259
 30
0.0
 11
137.71648558599381
 21
230.4567256057326
 31
0.0
 12
138.4799230859937
 22
230.4567256057326
 32
0.0
 13
138.4799230859937
 23
230.4567256057326
 33
0.0
  0
SOLID
  5
3D6
  8
CONSTRUCTION
  6
CONTINUOUS
 62
     7
 10
-137.71648558599381
 20
230.47860060573259
 30
0.0
 11
-138.47226683599371
 21
230.47860060573259
 31
0.0
 12
-138.4799230859937
 22
230.4567256057326
 32
0.0
 13
-138.4799230859937
 23
230.4567256057326
 33
0.0
210
0.0
220
0.0
230
-1.0
  0
SOLID
  5
3D7
  8
CONSTRUCTION
  6
CONTINUOUS
 62
     7
 10
137.71648558599381
 20
230.4567256057326
 30
0.0
 11
137.71648558599381
 21
230.43375685573261
 31
0.0
 12
138.48648558599371
 22
230.43375685573261
 32
0.0
 13
138.48648558599371
 23
230.43375685573261
 33
0.0
210
0.0
220
0.0
230
1.0
  0
SOLID
  5
3D8
  8
CONSTRUCTION
  6
CONTINUOUS
 62
     7
 10
-137.71648558599381
 20
230.4567256057326
 30
0.0
 11
-138.4799230859937
 21
230.4567256057326
 31
0.0
 12
-138.48648558599371
 22
230.43375685573261
 32
0.0
 13
-138.48648558599371
 23
230.43375685573261
 33
0.0
210
0.0
220
0.0
230
-1.0
  0
SOLID
  5
3D9
  8
CONSTRUCTION
  6
CONTINUOUS
 62
     7
 10
137.71648558599381
 20
230.43375685573261
 30
0.0
 11
137.71648558599381
 21
230.4086006057326
 31
0.0
 12
138.48976683599381
 22
230.4086006057326
 32
0.0
 13
138.48976683599381
 23
230.4086006057326
 33
0.0
210
0.0
220
0.0
230
1.0
  0
SOLID
  5
3DA
  8
CONSTRUCTION
  6
CONTINUOUS
 62
     7
 10
-137.71648558599381
 20
230.43375685573261
 30
0.0
 11
-138.48648558599371
 21
230.43375685573261
 31
0.0
 12
-138.48976683599381
 22
230.4086006057326
 32
0.0
 13
-138.48976683599381
 23
230.4086006057326
 33
0.0
210
0.0
220
0.0
230
-1.0
  0
SOLID
  5
3DB
  8
CONSTRUCTION
  6
CONTINUOUS
 62
     7
 10
137.71648558599381
 20
230.4086006057326
 30
0.0
 11
137.71648558599381
 21
230.38344435573259
 31
0.0
 12
138.49086058599369
 22
230.38344435573259
 32
0.0
 13
138.49086058599369
 23
230.38344435573259
 33
0.0
210
0.0
220
0.0
230
1.0
  0
SOLID
  5
3DC
  8
CONSTRUCTION
  6
CONTINUOUS
 62
     7
 10
-137.71648558599381
 20
230.4086006057326
 30
0.0
 11
-138.48976683599381
 21
230.4086006057326
 31
0.0
 12
-138.49086058599369
 22
230.38344435573259
 32
0.0
 13
-138.49086058599369
 23
230.38344435573259
 33
0.0
210
0.0
220
0.0
230
-1.0
  0
SOLID
  5
3DD
  8
CONSTRUCTION
  6
CONTINUOUS
 62
     7
 10
137.71648558599381
 20
230.38344435573259
 30
0.0
 11
137.71648558599381
 21
230.3484443557326
 31
0.0
 12
138.4886730859937
 22
230.3484443557326
 32
0.0
 13
138.4886730859937
 23
230.3484443557326
 33
0.0
210
0.0
220
0.0
230
1.0
  0
SOLID
  5
3DE
  8
CONSTRUCTION
  6
CONTINUOUS
 62
     7
 10
-137.71648558599381
 20
230.38344435573259
 30
0.0
 11
-138.49086058599369
 21
230.38344435573259
 31
0.0
 12
-138.4886730859937
 22
230.3484443557326
 32
0.0
 13
-138.4886730859937
 23
230.3484443557326
 33
0.0
210
0.0
220
0.0
230
-1.0
  0
SOLID
  5
3DF
  8
CONSTRUCTION
  6
CONTINUOUS
 62
     7
 10
137.71648558599381
 20
230.3484443557326
 30
0.0
 11
137.71648558599381
 21
230.33094435573261
 31
0.0
 12
138.48539183599371
 22
230.33094435573261
 32
0.0
 13
138.48539183599371
 23
230.33094435573261
 33
0.0
210
0.0
220
0.0
230
1.0
  0
SOLID
  5
3E0
  8
CONSTRUCTION
  6
CONTINUOUS
 62
     7
 10
-137.71648558599381
 20
230.3484443557326
 30
0.0
 11
-138.4886730859937
 21
230.3484443557326
 31
0.0
 12
-138.48539183599371
 22
230.33094435573261
 32
0.0
 13
-138.48539183599371
 23
230.33094435573261
 33
0.0
210
0.0
220
0.0
230
-1.0
  0
SOLID
  5
3E1
  8
CONSTRUCTION
  6
CONTINUOUS
 62
     7
 10
137.71648558599381
 20
230.33094435573261
 30
0.0
 11
137.71648558599381
 21
230.31453810573259
 31
0.0
 12
138.48101683599381
 22
230.31453810573259
 32
0.0
 13
138.48101683599381
 23
230.31453810573259
 33
0.0
  0
SOLID
  5
3E2
  8
CONSTRUCTION
  6
CONTINUOUS
 62
     7
 10
-137.71648558599381
 20
230.33094435573261
 30
0.0
 11
-138.48539183599371
 21
230.33094435573261
 31
0.0
 12
-138.48101683599381
 22
230.31453810573259
 32
0.0
 13
-138.48101683599381
 23
230.31453810573259
 33
0.0
210
0.0
220
0.0
230
-1.0
  0
SOLID
  5
3E3
  8
CONSTRUCTION
  6
CONTINUOUS
 62
     7
 10
137.71648558599381
 20
230.31453810573259
 30
0.0
 11
137.71648558599381
 21
230.29813185573261
 31
0.0
 12
138.47554808599381
 22
230.29813185573261
 32
0.0
 13
138.47554808599381
 23
230.29813185573261
 33
0.0
210
0.0
220
0.0
230
1.0
  0
SOLID
  5
3E4
  8
CONSTRUCTION
  6
CONTINUOUS
 62
     7
 10
-137.71648558599381
 20
230.31453810573259
 30
0.0
 11
-138.48101683599381
 21
230.31453810573259
 31
0.0
 12
-138.47554808599381
 22
230.29813185573261
 32
0.0
 13
-138.47554808599381
 23
230.29813185573261
 33
0.0
210
0.0
220
0.0
230
-1.0
  0
SOLID
  5
3E5
  8
CONSTRUCTION
  6
CONTINUOUS
 62
     7
 10
137.71648558599381
 20
230.29813185573261
 30
0.0
 11
137.71648558599381
 21
230.28281935573261
 31
0.0
 12
138.46898558599369
 22
230.28281935573261
 32
0.0
 13
138.46898558599369
 23
230.28281935573261
 33
0.0
  0
SOLID
  5
3E6
  8
CONSTRUCTION
  6
CONTINUOUS
 62
     7
 10
-137.71648558599381
 20
230.29813185573261
 30
0.0
 11
-138.47554808599381
 21
230.29813185573261
 31
0.0
 12
-138.46898558599369
 22
230.28281935573261
 32
0.0
 13
-138.46898558599369
 23
230.28281935573261
 33
0.0
210
0.0
220
0.0
230
-1.0
  0
SOLID
  5
3E7
  8
CONSTRUCTION
  6
CONTINUOUS
 62
     7
 10
137.71648558599381
 20
230.28281935573261
 30
0.0
 11
137.71648558599381
 21
230.2664131057326
 31
0.0
 12
138.4613293359937
 22
230.2664131057326
 32
0.0
 13
138.4613293359937
 23
230.2664131057326
 33
0.0
210
0.0
220
0.0
230
1.0
  0
SOLID
  5
3E8
  8
CONSTRUCTION
  6
CONTINUOUS
 62
     7
 10
-137.71648558599381
 20
230.28281935573261
 30
0.0
 11
-138.46898558599369
 21
230.28281935573261
 31
0.0
 12
-138.4613293359937
 22
230.2664131057326
 32
0.0
 13
-138.4613293359937
 23
230.2664131057326
 33
0.0
210
0.0
220
0.0
230
-1.0
  0
SOLID
  5
3E9
  8
CONSTRUCTION
  6
CONTINUOUS
 62
     7
 10
137.71648558599381
 20
230.2664131057326
 30
0.0
 11
137.71648558599381
 21
230.2511006057326
 31
0.0
 12
138.45257933599379
 22
230.2511006057326
 32
0.0
 13
138.45257933599379
 23
230.2511006057326
 33
0.0
  0
SOLID
  5
3EA
  8
CONSTRUCTION
  6
CONTINUOUS
 62
     7
 10
-137.71648558599381
 20
230.2664131057326
 30
0.0
 11
-138.4613293359937
 21
230.2664131057326
 31
0.0
 12
-138.45257933599379
 22
230.2511006057326
 32
0.0
 13
-138.45257933599379
 23
230.2511006057326
 33
0.0
210
0.0
220
0.0
230
-1.0
  0
SOLID
  5
3EB
  8
CONSTRUCTION
  6
CONTINUOUS
 62
     7
 10
137.71648558599381
 20
230.2511006057326
 30
0.0
 11
137.71648558599381
 21
230.22266310573261
 31
0.0
 12
138.43070433599371
 22
230.22266310573261
 32
0.0
 13
138.43070433599371
 23
230.22266310573261
 33
0.0
  0
SOLID
  5
3EC
  8
CONSTRUCTION
  6
CONTINUOUS
 62
     7
 10
-137.71648558599381
 20
230.2511006057326
 30
0.0
 11
-138.45257933599379
 21
230.2511006057326
 31
0.0
 12
-138.43070433599371
 22
230.22266310573261
 32
0.0
 13
-138.43070433599371
 23
230.22266310573261
 33
0.0
210
0.0
220
0.0
230
-1.0
  0
SOLID
  5
3ED
  8
CONSTRUCTION
  6
CONTINUOUS
 62
     7
 10
137.71648558599381
 20
230.22266310573261
 30
0.0
 11
137.71648558599381
 21
230.19860060573259
 31
0.0
 12
138.40445433599379
 22
230.19860060573259
 32
0.0
 13
138.40445433599379
 23
230.19860060573259
 33
0.0
210
0.0
220
0.0
230
1.0
  0
SOLID
  5
3EE
  8
CONSTRUCTION
  6
CONTINUOUS
 62
     7
 10
-137.71648558599381
 20
230.22266310573261
 30
0.0
 11
-138.43070433599371
 21
230.22266310573261
 31
0.0
 12
-138.40445433599379
 22
230.19860060573259
 32
0.0
 13
-138.40445433599379
 23
230.19860060573259
 33
0.0
210
0.0
220
0.0
230
-1.0
  0
SOLID
  5
3EF
  8
CONSTRUCTION
  6
CONTINUOUS
 62
     7
 10
137.71648558599381
 20
230.19860060573259
 30
0.0
 11
137.71648558599381
 21
230.18766310573261
 31
0.0
 12
138.3891418359938
 22
230.18766310573261
 32
0.0
 13
138.3891418359938
 23
230.18766310573261
 33
0.0
210
0.0
220
0.0
230
1.0
  0
SOLID
  5
3F0
  8
CONSTRUCTION
  6
CONTINUOUS
 62
     7
 10
-137.71648558599381
 20
230.19860060573259
 30
0.0
 11
-138.40445433599379
 21
230.19860060573259
 31
0.0
 12
-138.3891418359938
 22
230.18766310573261
 32
0.0
 13
-138.3891418359938
 23
230.18766310573261
 33
0.0
210
0.0
220
0.0
230
-1.0
  0
SOLID
  5
3F1
  8
CONSTRUCTION
  6
CONTINUOUS
 62
     7
 10
137.71648558599381
 20
230.18766310573261
 30
0.0
 11
137.71648558599381
 21
230.17891310573259
 31
0.0
 12
138.3738293359938
 22
230.17891310573259
 32
0.0
 13
138.3738293359938
 23
230.17891310573259
 33
0.0
  0
SOLID
  5
3F2
  8
CONSTRUCTION
  6
CONTINUOUS
 62
     7
 10
-137.71648558599381
 20
230.18766310573261
 30
0.0
 11
-138.3891418359938
 21
230.18766310573261
 31
0.0
 12
-138.3738293359938
 22
230.17891310573259
 32
0.0
 13
-138.3738293359938
 23
230.17891310573259
 33
0.0
210
0.0
220
0.0
230
-1.0
  0
SOLID
  5
3F3
  8
CONSTRUCTION
  6
CONTINUOUS
 62
     7
 10
137.71648558599381
 20
230.17891310573259
 30
0.0
 11
137.71648558599381
 21
230.1701631057326
 31
0.0
 12
138.35632933599371
 22
230.1701631057326
 32
0.0
 13
138.35632933599371
 23
230.1701631057326
 33
0.0
  0
SOLID
  5
3F4
  8
CONSTRUCTION
  6
CONTINUOUS
 62
     7
 10
-137.71648558599381
 20
230.17891310573259
 30
0.0
 11
-138.3738293359938
 21
230.17891310573259
 31
0.0
 12
-138.35632933599371
 22
230.1701631057326
 32
0.0
 13
-138.35632933599371
 23
230.1701631057326
 33
0.0
210
0.0
220
0.0
230
-1.0
  0
SOLID
  5
3F5
  8
CONSTRUCTION
  6
CONTINUOUS
 62
     7
 10
137.71648558599381
 20
230.1701631057326
 30
0.0
 11
137.71648558599381
 21
230.1625068557326
 31
0.0
 12
138.33882933599369
 22
230.1625068557326
 32
0.0
 13
138.33882933599369
 23
230.1625068557326
 33
0.0
  0
SOLID
  5
3F6
  8
CONSTRUCTION
  6
CONTINUOUS
 62
     7
 10
-137.71648558599381
 20
230.1701631057326
 30
0.0
 11
-138.35632933599371
 21
230.1701631057326
 31
0.0
 12
-138.33882933599369
 22
230.1625068557326
 32
0.0
 13
-138.33882933599369
 23
230.1625068557326
 33
0.0
210
0.0
220
0.0
230
-1.0
  0
SOLID
  5
3F7
  8
CONSTRUCTION
  6
CONTINUOUS
 62
     7
 10
137.71648558599381
 20
230.1625068557326
 30
0.0
 11
137.71648558599381
 21
230.15594435573269
 31
0.0
 12
138.31914183599369
 22
230.15594435573269
 32
0.0
 13
138.31914183599369
 23
230.15594435573269
 33
0.0
210
0.0
220
0.0
230
1.0
  0
SOLID
  5
3F8
  8
CONSTRUCTION
  6
CONTINUOUS
 62
     7
 10
-137.71648558599381
 20
230.1625068557326
 30
0.0
 11
-138.33882933599369
 21
230.1625068557326
 31
0.0
 12
-138.31914183599369
 22
230.15594435573269
 32
0.0
 13
-138.31914183599369
 23
230.15594435573269
 33
0.0
210
0.0
220
0.0
230
-1.0
  0
SOLID
  5
3F9
  8
CONSTRUCTION
  6
CONTINUOUS
 62
     7
 10
137.71648558599381
 20
230.15594435573269
 30
0.0
 11
137.71648558599381
 21
230.15047560573259
 31
0.0
 12
138.2972668359937
 22
230.15047560573259
 32
0.0
 13
138.2972668359937
 23
230.15047560573259
 33
0.0
210
0.0
220
0.0
230
1.0
  0
SOLID
  5
3FA
  8
CONSTRUCTION
  6
CONTINUOUS
 62
     7
 10
-137.71648558599381
 20
230.15594435573269
 30
0.0
 11
-138.31914183599369
 21
230.15594435573269
 31
0.0
 12
-138.2972668359937
 22
230.15047560573259
 32
0.0
 13
-138.2972668359937
 23
230.15047560573259
 33
0.0
210
0.0
220
0.0
230
-1.0
  0
SOLID
  5
3FB
  8
CONSTRUCTION
  6
CONTINUOUS
 62
     7
 10
137.71648558599381
 20
230.15047560573259
 30
0.0
 11
137.71648558599381
 21
230.1461006057325
 31
0.0
 12
138.27429808599371
 22
230.1461006057325
 32
0.0
 13
138.27429808599371
 23
230.1461006057325
 33
0.0
  0
SOLID
  5
3FC
  8
CONSTRUCTION
  6
CONTINUOUS
 62
     7
 10
-137.71648558599381
 20
230.15047560573259
 30
0.0
 11
-138.2972668359937
 21
230.15047560573259
 31
0.0
 12
-138.27429808599371
 22
230.1461006057325
 32
0.0
 13
-138.27429808599371
 23
230.1461006057325
 33
0.0
210
0.0
220
0.0
230
-1.0
  0
SOLID
  5
3FD
  8
CONSTRUCTION
  6
CONTINUOUS
 62
     7
 10
137.71648558599381
 20
230.1461006057325
 30
0.0
 11
137.71648558599381
 21
230.1417256057326
 31
0.0
 12
138.24914183599381
 22
230.1417256057326
 32
0.0
 13
138.24914183599381
 23
230.1417256057326
 33
0.0
210
0.0
220
0.0
230
1.0
  0
SOLID
  5
3FE
  8
CONSTRUCTION
  6
CONTINUOUS
 62
     7
 10
-137.71648558599381
 20
230.1461006057325
 30
0.0
 11
-138.27429808599371
 21
230.1461006057325
 31
0.0
 12
-138.24914183599381
 22
230.1417256057326
 32
0.0
 13
-138.24914183599381
 23
230.1417256057326
 33
0.0
210
0.0
220
0.0
230
-1.0
  0
SOLID
  5
3FF
  8
CONSTRUCTION
  6
CONTINUOUS
 62
     7
 10
137.71648558599381
 20
230.1417256057326
 30
0.0
 11
137.71648558599381
 21
230.13844435573259
 31
0.0
 12
138.22289183599381
 22
230.13844435573259
 32
0.0
 13
138.22289183599381
 23
230.13844435573259
 33
0.0
210
0.0
220
0.0
230
1.0
  0
SOLID
  5
400
  8
CONSTRUCTION
  6
CONTINUOUS
 62
     7
 10
-137.71648558599381
 20
230.1417256057326
 30
0.0
 11
-138.24914183599381
 21
230.1417256057326
 31
0.0
 12
-138.22289183599381
 22
230.13844435573259
 32
0.0
 13
-138.22289183599381
 23
230.13844435573259
 33
0.0
210
0.0
220
0.0
230
-1.0
  0
SOLID
  5
401
  8
CONSTRUCTION
  6
CONTINUOUS
 62
     7
 10
137.71648558599381
 20
230.13844435573259
 30
0.0
 11
137.71648558599381
 21
230.13735060573259
 31
0.0
 12
138.19445433599381
 22
230.13735060573259
 32
0.0
 13
138.19445433599381
 23
230.13735060573259
 33
0.0
210
0.0
220
0.0
230
1.0
  0
SOLID
  5
402
  8
CONSTRUCTION
  6
CONTINUOUS
 62
     7
 10
-137.71648558599381
 20
230.13844435573259
 30
0.0
 11
-138.22289183599381
 21
230.13844435573259
 31
0.0
 12
-138.19445433599381
 22
230.13735060573259
 32
0.0
 13
-138.19445433599381
 23
230.13735060573259
 33
0.0
210
0.0
220
0.0
230
-1.0
  0
SOLID
  5
403
  8
CONSTRUCTION
  6
CONTINUOUS
 62
     7
 10
137.71648558599381
 20
230.13735060573259
 30
0.0
 11
137.71648558599381
 21
230.1351631057326
 31
0.0
 12
138.16382933599331
 22
230.1351631057326
 32
0.0
 13
138.16382933599331
 23
230.1351631057326
 33
0.0
  0
SOLID
  5
404
  8
CONSTRUCTION
  6
CONTINUOUS
 62
     7
 10
-137.71648558599381
 20
230.13735060573259
 30
0.0
 11
-138.19445433599381
 21
230.13735060573259
 31
0.0
 12
-138.16382933599331
 22
230.1351631057326
 32
0.0
 13
-138.16382933599331
 23
230.1351631057326
 33
0.0
210
0.0
220
0.0
230
-1.0
  0
SOLID
  5
405
  8
CONSTRUCTION
  6
CONTINUOUS
 62
     7
 10
137.71648558599381
 20
230.1351631057326
 30
0.0
 11
137.71648558599381
 21
230.1351631057326
 31
0.0
 12
138.16382933599371
 22
230.1351631057326
 32
0.0
 13
138.16382933599371
 23
230.1351631057326
 33
0.0
210
0.0
220
0.0
230
1.0
  0
LINE
  5
406
  8
CONSTRUCTION
  6
CONTINUOUS
 62
     7
 10
137.71648558599381
 20
230.62297560573259
 30
0.0
 11
138.17804808599371
 21
230.62297560573259
 31
0.0
  0
LINE
  5
407
  8
CONSTRUCTION
  6
CONTINUOUS
 62
     7
 10
137.71648558599381
 20
230.62297560573259
 30
0.0
 11
137.71648558599381
 21
230.6218818557326
 31
0.0
  0
LINE
  5
408
  8
CONSTRUCTION
  6
CONTINUOUS
 62
     7
 10
138.17804808599371
 20
230.62297560573259
 30
0.0
 11
138.2174230859938
 21
230.6218818557326
 31
0.0
  0
LINE
  5
409
  8
CONSTRUCTION
  6
CONTINUOUS
 62
     7
 10
137.71648558599381
 20
230.6218818557326
 30
0.0
 11
137.71648558599381
 21
230.61860060573261
 31
0.0
  0
LINE
  5
40A
  8
CONSTRUCTION
  6
CONTINUOUS
 62
     7
 10
138.2174230859938
 20
230.6218818557326
 30
0.0
 11
138.25351683599371
 21
230.61860060573261
 31
0.0
  0
LINE
  5
40B
  8
CONSTRUCTION
  6
CONTINUOUS
 62
     7
 10
137.71648558599381
 20
230.61860060573261
 30
0.0
 11
137.71648558599381
 21
230.6131318557326
 31
0.0
  0
LINE
  5
40C
  8
CONSTRUCTION
  6
CONTINUOUS
 62
     7
 10
138.25351683599371
 20
230.61860060573261
 30
0.0
 11
138.28742308599379
 21
230.6131318557326
 31
0.0
  0
LINE
  5
40D
  8
CONSTRUCTION
  6
CONTINUOUS
 62
     7
 10
137.71648558599381
 20
230.6131318557326
 30
0.0
 11
137.71648558599381
 21
230.60547560573261
 31
0.0
  0
LINE
  5
40E
  8
CONSTRUCTION
  6
CONTINUOUS
 62
     7
 10
138.28742308599379
 20
230.6131318557326
 30
0.0
 11
138.31914183599369
 21
230.60547560573261
 31
0.0
  0
LINE
  5
40F
  8
CONSTRUCTION
  6
CONTINUOUS
 62
     7
 10
137.71648558599381
 20
230.60547560573261
 30
0.0
 11
137.71648558599381
 21
230.59672560573259
 31
0.0
  0
LINE
  5
410
  8
CONSTRUCTION
  6
CONTINUOUS
 62
     7
 10
138.31914183599369
 20
230.60547560573261
 30
0.0
 11
138.34757933599369
 21
230.59672560573259
 31
0.0
  0
LINE
  5
411
  8
CONSTRUCTION
  6
CONTINUOUS
 62
     7
 10
137.71648558599381
 20
230.59672560573259
 30
0.0
 11
137.71648558599381
 21
230.58469435573261
 31
0.0
  0
LINE
  5
412
  8
CONSTRUCTION
  6
CONTINUOUS
 62
     7
 10
138.34757933599369
 20
230.59672560573259
 30
0.0
 11
138.37273558599369
 21
230.58469435573261
 31
0.0
  0
LINE
  5
413
  8
CONSTRUCTION
  6
CONTINUOUS
 62
     7
 10
137.71648558599381
 20
230.58469435573261
 30
0.0
 11
137.71648558599381
 21
230.57156935573261
 31
0.0
  0
LINE
  5
414
  8
CONSTRUCTION
  6
CONTINUOUS
 62
     7
 10
138.37273558599369
 20
230.58469435573261
 30
0.0
 11
138.39570433599371
 21
230.57156935573261
 31
0.0
  0
LINE
  5
415
  8
CONSTRUCTION
  6
CONTINUOUS
 62
     7
 10
137.71648558599381
 20
230.57156935573261
 30
0.0
 11
137.71648558599381
 21
230.55516310573259
 31
0.0
  0
LINE
  5
416
  8
CONSTRUCTION
  6
CONTINUOUS
 62
     7
 10
138.39570433599371
 20
230.57156935573261
 30
0.0
 11
138.4153918359938
 21
230.55516310573259
 31
0.0
  0
LINE
  5
417
  8
CONSTRUCTION
  6
CONTINUOUS
 62
     7
 10
137.71648558599381
 20
230.55516310573259
 30
0.0
 11
137.71648558599381
 21
230.53766310573261
 31
0.0
  0
LINE
  5
418
  8
CONSTRUCTION
  6
CONTINUOUS
 62
     7
 10
138.4153918359938
 20
230.55516310573259
 30
0.0
 11
138.4328918359937
 21
230.53766310573261
 31
0.0
  0
LINE
  5
419
  8
CONSTRUCTION
  6
CONTINUOUS
 62
     7
 10
137.71648558599381
 20
230.53766310573261
 30
0.0
 11
137.71648558599381
 21
230.5190693557326
 31
0.0
  0
LINE
  5
41A
  8
CONSTRUCTION
  6
CONTINUOUS
 62
     7
 10
138.4328918359937
 20
230.53766310573261
 30
0.0
 11
138.44820433599369
 21
230.5190693557326
 31
0.0
  0
LINE
  5
41B
  8
CONSTRUCTION
  6
CONTINUOUS
 62
     7
 10
137.71648558599381
 20
230.5190693557326
 30
0.0
 11
137.71648558599381
 21
230.49938185573259
 31
0.0
  0
LINE
  5
41C
  8
CONSTRUCTION
  6
CONTINUOUS
 62
     7
 10
138.44820433599369
 20
230.5190693557326
 30
0.0
 11
138.4613293359937
 21
230.49938185573259
 31
0.0
  0
LINE
  5
41D
  8
CONSTRUCTION
  6
CONTINUOUS
 62
     7
 10
137.71648558599381
 20
230.49938185573259
 30
0.0
 11
137.71648558599381
 21
230.47860060573259
 31
0.0
  0
LINE
  5
41E
  8
CONSTRUCTION
  6
CONTINUOUS
 62
     7
 10
138.4613293359937
 20
230.49938185573259
 30
0.0
 11
138.47226683599371
 21
230.47860060573259
 31
0.0
  0
LINE
  5
41F
  8
CONSTRUCTION
  6
CONTINUOUS
 62
     7
 10
137.71648558599381
 20
230.47860060573259
 30
0.0
 11
137.71648558599381
 21
230.4567256057326
 31
0.0
  0
LINE
  5
420
  8
CONSTRUCTION
  6
CONTINUOUS
 62
     7
 10
138.47226683599371
 20
230.47860060573259
 30
0.0
 11
138.4799230859937
 21
230.4567256057326
 31
0.0
  0
LINE
  5
421
  8
CONSTRUCTION
  6
CONTINUOUS
 62
     7
 10
137.71648558599381
 20
230.4567256057326
 30
0.0
 11
137.71648558599381
 21
230.43375685573261
 31
0.0
  0
LINE
  5
422
  8
CONSTRUCTION
  6
CONTINUOUS
 62
     7
 10
138.4799230859937
 20
230.4567256057326
 30
0.0
 11
138.48648558599371
 21
230.43375685573261
 31
0.0
  0
LINE
  5
423
  8
CONSTRUCTION
  6
CONTINUOUS
 62
     7
 10
137.71648558599381
 20
230.43375685573261
 30
0.0
 11
137.71648558599381
 21
230.4086006057326
 31
0.0
  0
LINE
  5
424
  8
CONSTRUCTION
  6
CONTINUOUS
 62
     7
 10
138.48648558599371
 20
230.43375685573261
 30
0.0
 11
138.48976683599381
 21
230.4086006057326
 31
0.0
  0
LINE
  5
425
  8
CONSTRUCTION
  6
CONTINUOUS
 62
     7
 10
137.71648558599381
 20
230.4086006057326
 30
0.0
 11
137.71648558599381
 21
230.38344435573259
 31
0.0
  0
LINE
  5
426
  8
CONSTRUCTION
  6
CONTINUOUS
 62
     7
 10
138.48976683599381
 20
230.4086006057326
 30
0.0
 11
138.49086058599369
 21
230.38344435573259
 31
0.0
  0
LINE
  5
427
  8
CONSTRUCTION
  6
CONTINUOUS
 62
     7
 10
137.71648558599381
 20
230.38344435573259
 30
0.0
 11
137.71648558599381
 21
230.3484443557326
 31
0.0
  0
LINE
  5
428
  8
CONSTRUCTION
  6
CONTINUOUS
 62
     7
 10
138.49086058599369
 20
230.38344435573259
 30
0.0
 11
138.4886730859937
 21
230.3484443557326
 31
0.0
  0
LINE
  5
429
  8
CONSTRUCTION
  6
CONTINUOUS
 62
     7
 10
137.71648558599381
 20
230.3484443557326
 30
0.0
 11
137.71648558599381
 21
230.33094435573261
 31
0.0
  0
LINE
  5
42A
  8
CONSTRUCTION
  6
CONTINUOUS
 62
     7
 10
138.4886730859937
 20
230.3484443557326
 30
0.0
 11
138.48539183599371
 21
230.33094435573261
 31
0.0
  0
LINE
  5
42B
  8
CONSTRUCTION
  6
CONTINUOUS
 62
     7
 10
137.71648558599381
 20
230.33094435573261
 30
0.0
 11
137.71648558599381
 21
230.31453810573259
 31
0.0
  0
LINE
  5
42C
  8
CONSTRUCTION
  6
CONTINUOUS
 62
     7
 10
138.48539183599371
 20
230.33094435573261
 30
0.0
 11
138.48101683599381
 21
230.31453810573259
 31
0.0
  0
LINE
  5
42D
  8
CONSTRUCTION
  6
CONTINUOUS
 62
     7
 10
137.71648558599381
 20
230.31453810573259
 30
0.0
 11
137.71648558599381
 21
230.29813185573261
 31
0.0
  0
LINE
  5
42E
  8
CONSTRUCTION
  6
CONTINUOUS
 62
     7
 10
138.48101683599381
 20
230.31453810573259
 30
0.0
 11
138.47554808599381
 21
230.29813185573261
 31
0.0
  0
LINE
  5
42F
  8
CONSTRUCTION
  6
CONTINUOUS
 62
     7
 10
137.71648558599381
 20
230.29813185573261
 30
0.0
 11
137.71648558599381
 21
230.28281935573261
 31
0.0
  0
LINE
  5
430
  8
CONSTRUCTION
  6
CONTINUOUS
 62
     7
 10
138.47554808599381
 20
230.29813185573261
 30
0.0
 11
138.46898558599369
 21
230.28281935573261
 31
0.0
  0
LINE
  5
431
  8
CONSTRUCTION
  6
CONTINUOUS
 62
     7
 10
137.71648558599381
 20
230.28281935573261
 30
0.0
 11
137.71648558599381
 21
230.2664131057326
 31
0.0
  0
LINE
  5
432
  8
CONSTRUCTION
  6
CONTINUOUS
 62
     7
 10
138.46898558599369
 20
230.28281935573261
 30
0.0
 11
138.4613293359937
 21
230.2664131057326
 31
0.0
  0
LINE
  5
433
  8
CONSTRUCTION
  6
CONTINUOUS
 62
     7
 10
137.71648558599381
 20
230.2664131057326
 30
0.0
 11
137.71648558599381
 21
230.2511006057326
 31
0.0
  0
LINE
  5
434
  8
CONSTRUCTION
  6
CONTINUOUS
 62
     7
 10
138.4613293359937
 20
230.2664131057326
 30
0.0
 11
138.45257933599379
 21
230.2511006057326
 31
0.0
  0
LINE
  5
435
  8
CONSTRUCTION
  6
CONTINUOUS
 62
     7
 10
137.71648558599381
 20
230.2511006057326
 30
0.0
 11
137.71648558599381
 21
230.22266310573261
 31
0.0
  0
LINE
  5
436
  8
CONSTRUCTION
  6
CONTINUOUS
 62
     7
 10
138.45257933599379
 20
230.2511006057326
 30
0.0
 11
138.43070433599371
 21
230.22266310573261
 31
0.0
  0
LINE
  5
437
  8
CONSTRUCTION
  6
CONTINUOUS
 62
     7
 10
137.71648558599381
 20
230.22266310573261
 30
0.0
 11
137.71648558599381
 21
230.19860060573259
 31
0.0
  0
LINE
  5
438
  8
CONSTRUCTION
  6
CONTINUOUS
 62
     7
 10
138.43070433599371
 20
230.22266310573261
 30
0.0
 11
138.40445433599379
 21
230.19860060573259
 31
0.0
  0
LINE
  5
439
  8
CONSTRUCTION
  6
CONTINUOUS
 62
     7
 10
137.71648558599381
 20
230.19860060573259
 30
0.0
 11
137.71648558599381
 21
230.18766310573261
 31
0.0
  0
LINE
  5
43A
  8
CONSTRUCTION
  6
CONTINUOUS
 62
     7
 10
138.40445433599379
 20
230.19860060573259
 30
0.0
 11
138.3891418359938
 21
230.18766310573261
 31
0.0
  0
LINE
  5
43B
  8
CONSTRUCTION
  6
CONTINUOUS
 62
     7
 10
137.71648558599381
 20
230.18766310573261
 30
0.0
 11
137.71648558599381
 21
230.17891310573259
 31
0.0
  0
LINE
  5
43C
  8
CONSTRUCTION
  6
CONTINUOUS
 62
     7
 10
138.3891418359938
 20
230.18766310573261
 30
0.0
 11
138.3738293359938
 21
230.17891310573259
 31
0.0
  0
LINE
  5
43D
  8
CONSTRUCTION
  6
CONTINUOUS
 62
     7
 10
137.71648558599381
 20
230.17891310573259
 30
0.0
 11
137.71648558599381
 21
230.1701631057326
 31
0.0
  0
LINE
  5
43E
  8
CONSTRUCTION
  6
CONTINUOUS
 62
     7
 10
138.3738293359938
 20
230.17891310573259
 30
0.0
 11
138.35632933599371
 21
230.1701631057326
 31
0.0
  0
LINE
  5
43F
  8
CONSTRUCTION
  6
CONTINUOUS
 62
     7
 10
137.71648558599381
 20
230.1701631057326
 30
0.0
 11
137.71648558599381
 21
230.1625068557326
 31
0.0
  0
LINE
  5
440
  8
CONSTRUCTION
  6
CONTINUOUS
 62
     7
 10
138.35632933599371
 20
230.1701631057326
 30
0.0
 11
138.33882933599369
 21
230.1625068557326
 31
0.0
  0
LINE
  5
441
  8
CONSTRUCTION
  6
CONTINUOUS
 62
     7
 10
137.71648558599381
 20
230.1625068557326
 30
0.0
 11
137.71648558599381
 21
230.15594435573269
 31
0.0
  0
LINE
  5
442
  8
CONSTRUCTION
  6
CONTINUOUS
 62
     7
 10
138.33882933599369
 20
230.1625068557326
 30
0.0
 11
138.31914183599369
 21
230.15594435573269
 31
0.0
  0
LINE
  5
443
  8
CONSTRUCTION
  6
CONTINUOUS
 62
     7
 10
137.71648558599381
 20
230.15594435573269
 30
0.0
 11
137.71648558599381
 21
230.15047560573259
 31
0.0
  0
LINE
  5
444
  8
CONSTRUCTION
  6
CONTINUOUS
 62
     7
 10
138.31914183599369
 20
230.15594435573269
 30
0.0
 11
138.2972668359937
 21
230.15047560573259
 31
0.0
  0
LINE
  5
445
  8
CONSTRUCTION
  6
CONTINUOUS
 62
     7
 10
137.71648558599381
 20
230.15047560573259
 30
0.0
 11
137.71648558599381
 21
230.1461006057325
 31
0.0
  0
LINE
  5
446
  8
CONSTRUCTION
  6
CONTINUOUS
 62
     7
 10
138.2972668359937
 20
230.15047560573259
 30
0.0
 11
138.27429808599371
 21
230.1461006057325
 31
0.0
  0
LINE
  5
447
  8
CONSTRUCTION
  6
CONTINUOUS
 62
     7
 10
137.71648558599381
 20
230.1461006057325
 30
0.0
 11
137.71648558599381
 21
230.1417256057326
 31
0.0
  0
LINE
  5
448
  8
CONSTRUCTION
  6
CONTINUOUS
 62
     7
 10
138.27429808599371
 20
230.1461006057325
 30
0.0
 11
138.24914183599381
 21
230.1417256057326
 31
0.0
  0
LINE
  5
449
  8
CONSTRUCTION
  6
CONTINUOUS
 62
     7
 10
137.71648558599381
 20
230.1417256057326
 30
0.0
 11
137.71648558599381
 21
230.13844435573259
 31
0.0
  0
LINE
  5
44A
  8
CONSTRUCTION
  6
CONTINUOUS
 62
     7
 10
138.24914183599381
 20
230.1417256057326
 30
0.0
 11
138.22289183599381
 21
230.13844435573259
 31
0.0
  0
LINE
  5
44B
  8
CONSTRUCTION
  6
CONTINUOUS
 62
     7
 10
137.71648558599381
 20
230.13844435573259
 30
0.0
 11
137.71648558599381
 21
230.13735060573259
 31
0.0
  0
LINE
  5
44C
  8
CONSTRUCTION
  6
CONTINUOUS
 62
     7
 10
138.22289183599381
 20
230.13844435573259
 30
0.0
 11
138.19445433599381
 21
230.13735060573259
 31
0.0
  0
LINE
  5
44D
  8
CONSTRUCTION
  6
CONTINUOUS
 62
     7
 10
137.71648558599381
 20
230.13735060573259
 30
0.0
 11
137.71648558599381
 21
230.1351631057326
 31
0.0
  0
LINE
  5
44E
  8
CONSTRUCTION
  6
CONTINUOUS
 62
     7
 10
138.19445433599381
 20
230.13735060573259
 30
0.0
 11
138.16382933599331
 21
230.1351631057326
 31
0.0
  0
LINE
  5
44F
  8
CONSTRUCTION
  6
CONTINUOUS
 62
     7
 10
137.71648558599381
 20
230.1351631057326
 30
0.0
 11
138.16382933599371
 21
230.1351631057326
 31
0.0
  0
ENDBLK
  5
451
  8
0
 62
     7
  0
ENDSEC
  0
SECTION
  2
ENTITIES
  0
TEXT
  5
5D
  8
1
  6
CONTINUOUS
 62
     7
 10
29.896734224297141
 20
15.0
 30
0.0
 40
4.9999999999999982
  1
Radarreflektor 77G-3.2-RUB-S
 41
1.079601583438877
  7
ARIAL
  0
TEXT
  5
5F
  8
DIMENSIONS
  6
CONTINUOUS
 62
     1
 10
144.57708049113231
 20
205.0
 30
0.0
 40
3.9999999999999991
  1
34,49 mm
  7
ARIAL
 72
     1
 11
157.0
 21
207.0
 31
0.0
 73
     2
  0
LINE
  5
60
  8
DIMENSIONS
  6
CONTINUOUS
 62
     1
 10
139.04017669585269
 20
223.51332508080759
 30
0.0
 11
150.04017669585269
 21
223.51332508080759
 31
0.0
  0
LINE
  5
61
  8
DIMENSIONS
  6
CONTINUOUS
 62
     1
 10
138.9964151744166
 20
189.01878212886561
 30
0.0
 11
150.04017669585281
 21
189.01878212886561
 31
0.0
  0
LINE
  5
62
  8
DIMENSIONS
  6
CONTINUOUS
 62
     1
 10
147.04017669585269
 20
223.51332508080759
 30
0.0
 11
147.04017669585269
 21
210.0
 31
0.0
  0
LINE
  5
63
  8
DIMENSIONS
  6
CONTINUOUS
 62
     1
 10
147.04017669585281
 20
189.01878212886561
 30
0.0
 11
147.04017669585281
 21
204.0
 31
0.0
  0
INSERT
  5
69
  8
DIMENSIONS
  6
CONTINUOUS
 62
     1
  2
LONGARROW
 10
147.04017669585269
 20
223.51332508080759
 30
0.0
 41
0.078740157480315
 42
0.078740157480315
 50
270.00000000000011
  0
INSERT
  5
6A
  8
DIMENSIONS
  6
CONTINUOUS
 62
     1
  2
LONGARROW
 10
147.04017669585281
 20
189.01878212886561
 30
0.0
 41
0.078740157480315
 42
0.078740157480315
 50
90.000000000000057
  0
TEXT
  5
6B
  8
DIMENSIONS
  6
CONTINUOUS
 62
     1
 10
97.636972090699174
 20
92.325037277856097
 30
0.0
 40
3.9999999999999991
  1
87,32 mm
  7
ARIAL
 72
     1
 11
110.0598915995668
 21
94.325037277856111
 31
0.0
 73
     2
  0
LINE
  5
6C
  8
DIMENSIONS
  6
CONTINUOUS
 62
     1
 10
153.7211836208815
 20
102.3250372778561
 30
0.0
 11
153.7211836208815
 21
91.325037277856126
 31
0.0
  0
LINE
  5
6D
  8
DIMENSIONS
  6
CONTINUOUS
 62
     1
 10
66.398599578252131
 20
102.97841630473739
 30
0.0
 11
66.398599578252131
 21
91.325037277856126
 31
0.0
  0
LINE
  5
6E
  8
DIMENSIONS
  6
CONTINUOUS
 62
     1
 10
153.7211836208815
 20
94.325037277856111
 30
0.0
 11
126.7893030570458
 21
94.325037277856111
 31
0.0
  0
LINE
  5
6F
  8
DIMENSIONS
  6
CONTINUOUS
 62
     1
 10
66.398599578252131
 20
94.325037277856111
 30
0.0
 11
93.330480142087836
 21
94.325037277856111
 31
0.0
  0
INSERT
  5
70
  8
DIMENSIONS
  6
CONTINUOUS
 62
     1
  2
LONGARROW
 10
153.7211836208815
 20
94.325037277856111
 30
0.0
 41
0.078740157480315
 42
0.078740157480315
 50
180.0
  0
INSERT
  5
71
  8
DIMENSIONS
  6
CONTINUOUS
 62
     1
  2
LONGARROW
 10
66.398599578252131
 20
94.325037277856111
 30
0.0
 41
0.078740157480315
 42
0.078740157480315
  0
POLYLINE
  5
72
  8
1
  6
CONTINUOUS
 62
     7
 66
     1
 10
0.0
 20
0.0
 30
0.0
 70
     1
  0
VERTEX
  5
17D
  8
1
  6
CONTINUOUS
 62
     7
 10
199.0
 20
8.9999999999999982
 30
0.0
  0
VERTEX
  5
17E
  8
1
  6
CONTINUOUS
 62
     7
 10
15.00000000000029
 20
8.9999999999999982
 30
0.0
  0
VERTEX
  5
17F
  8
1
  6
CONTINUOUS
 62
     7
 10
15.00000000000029
 20
287.99999999999989
 30
0.0
  0
VERTEX
  5
180
  8
1
  6
CONTINUOUS
 62
     7
 10
199.0
 20
287.99999999999989
 30
0.0
  0
SEQEND
  5
181
  8
1
  6
CONTINUOUS
 62
     7
  0
TEXT
  5
73
  8
DIMENSIONS
  6
CONTINUOUS
 62
     1
 10
94.611681678363524
 20
177.37486359535191
 30
0.0
 40
3.9999999999999991
  1
50,00 mm
  7
ARIAL
 72
     1
 11
107.0346011872312
 21
179.37486359535191
 31
0.0
 73
     2
  0
LINE
  5
74
  8
DIMENSIONS
  6
CONTINUOUS
 62
     1
 10
82.036501990778206
 20
186.91332113527929
 30
0.0
 11
82.03650199077822
 21
176.37486359535191
 31
0.0
  0
LINE
  5
75
  8
DIMENSIONS
  6
CONTINUOUS
 62
     1
 10
132.03270038368399
 20
186.91332531050011
 30
0.0
 11
132.03270038368419
 21
176.37486359535191
 31
0.0
  0
LINE
  5
76
  8
DIMENSIONS
  6
CONTINUOUS
 62
     1
 10
82.03650199077822
 20
179.37486359535191
 30
0.0
 11
90.305189729752215
 21
179.37486359535191
 31
0.0
  0
LINE
  5
77
  8
DIMENSIONS
  6
CONTINUOUS
 62
     1
 10
132.03270038368419
 20
179.37486359535191
 30
0.0
 11
123.76401264471021
 21
179.37486359535191
 31
0.0
  0
INSERT
  5
78
  8
DIMENSIONS
  6
CONTINUOUS
 62
     1
  2
LONGARROW
 10
82.03650199077822
 20
179.37486359535191
 30
0.0
 41
0.078740157480315
 42
0.078740157480315
  0
INSERT
  5
79
  8
DIMENSIONS
  6
CONTINUOUS
 62
     1
  2
LONGARROW
 10
132.03270038368419
 20
179.37486359535191
 30
0.0
 41
0.078740157480315
 42
0.078740157480315
 50
180.0
  0
LINE
  5
7A
  8
DIMENSIONS
  6
CONTINUOUS
 62
     1
 10
79.39941785594003
 20
194.54970875810329
 30
0.0
 11
73.513027906477049
 21
195.71178163140399
 31
0.0
  0
LINE
  5
7B
  8
DIMENSIONS
  6
CONTINUOUS
 62
     1
 10
84.500955812141285
 20
193.54257893457611
 30
0.0
 11
90.387345761604266
 21
192.3805060612755
 31
0.0
  0
LINE
  5
7C
  8
DIMENSIONS
  6
CONTINUOUS
 62
     1
 10
90.387345761604266
 20
192.3805060612755
 30
0.0
 11
96.387345761604266
 21
192.3805060612755
 31
0.0
  0
INSERT
  5
7D
  8
DIMENSIONS
  6
CONTINUOUS
 62
     1
  2
LONGARROW
 10
84.500955812141285
 20
193.54257893457611
 30
0.0
 41
0.078740157480315
 42
0.078740157480315
 50
348.83244619015488
  0
INSERT
  5
7E
  8
DIMENSIONS
  6
CONTINUOUS
 62
     1
  2
LONGARROW
 10
79.39941785594003
 20
194.54970875810329
 30
0.0
 41
0.078740157480315
 42
0.078740157480315
 50
168.832446190155
  0
TEXT
  5
7F
  8
1
  6
CONTINUOUS
 62
     1
 10
101.0146061437982
 20
190.3805060612755
 30
0.0
 40
3.9999999999999991
  1
ø 5,20 mm
  7
ARIAL
 72
     1
 11
114.3665843156945
 21
192.3805060612755
 31
0.0
 73
     2
  0
TEXT
  5
80
  8
DIMENSIONS
  6
CONTINUOUS
 62
     1
 10
84.608687988391168
 20
243.3924449104216
 30
0.0
 40
3.9999999999999991
  1
43,72 mm
  7
ARIAL
 72
     1
 11
97.031607497258832
 21
245.3924449104216
 31
0.0
 73
     2
  0
LINE
  5
81
  8
DIMENSIONS
  6
CONTINUOUS
 62
     1
 10
105.0316074972588
 20
223.53315038314631
 30
0.0
 11
94.031607497258861
 21
223.53315038314631
 31
0.0
  0
LINE
  5
82
  8
DIMENSIONS
  6
CONTINUOUS
 62
     1
 10
105.07441248371759
 20
267.25173943769693
 30
0.0
 11
94.031607497258818
 21
267.25173943769693
 31
0.0
  0
LINE
  5
83
  8
DIMENSIONS
  6
CONTINUOUS
 62
     1
 10
97.031607497258847
 20
223.53315038314631
 30
0.0
 11
97.031607497258832
 21
242.3924449104216
 31
0.0
  0
LINE
  5
84
  8
DIMENSIONS
  6
CONTINUOUS
 62
     1
 10
97.031607497258804
 20
267.25173943769693
 30
0.0
 11
97.031607497258832
 21
248.3924449104216
 31
0.0
  0
INSERT
  5
85
  8
DIMENSIONS
  6
CONTINUOUS
 62
     1
  2
LONGARROW
 10
97.031607497258847
 20
223.53315038314631
 30
0.0
 41
0.078740157480315
 42
0.078740157480315
 50
90.000000000000057
  0
INSERT
  5
86
  8
DIMENSIONS
  6
CONTINUOUS
 62
     1
  2
LONGARROW
 10
97.031607497258804
 20
267.25173943769693
 30
0.0
 41
0.078740157480315
 42
0.078740157480315
 50
270.00000000000011
  0
TEXT
  5
87
  8
DIMENSIONS
  6
CONTINUOUS
 62
     1
 10
43.95338792829881
 20
123.6066734177133
 30
0.0
 40
3.9999999999999991
  1
42,72 mm
  7
ARIAL
 72
     1
 11
56.376307437166481
 21
125.6066734177133
 31
0.0
 73
     2
  0
LINE
  5
88
  8
DIMENSIONS
  6
CONTINUOUS
 62
     1
 10
64.376307437166503
 20
104.2480917617293
 30
0.0
 11
53.37630743716651
 21
104.2480917617293
 31
0.0
  0
LINE
  5
89
  8
DIMENSIONS
  6
CONTINUOUS
 62
     1
 10
108.0156986466171
 20
146.96525507369731
 30
0.0
 11
53.37630743716646
 21
146.96525507369731
 31
0.0
  0
LINE
  5
8A
  8
DIMENSIONS
  6
CONTINUOUS
 62
     1
 10
56.376307437166503
 20
104.2480917617293
 30
0.0
 11
56.376307437166481
 21
122.6066734177133
 31
0.0
  0
LINE
  5
8B
  8
DIMENSIONS
  6
CONTINUOUS
 62
     1
 10
56.376307437166453
 20
146.96525507369731
 30
0.0
 11
56.376307437166481
 21
128.6066734177133
 31
0.0
  0
INSERT
  5
8C
  8
DIMENSIONS
  6
CONTINUOUS
 62
     1
  2
LONGARROW
 10
56.376307437166503
 20
104.2480917617293
 30
0.0
 41
0.078740157480315
 42
0.078740157480315
 50
90.000000000000057
  0
INSERT
  5
8D
  8
DIMENSIONS
  6
CONTINUOUS
 62
     1
  2
LONGARROW
 10
56.376307437166453
 20
146.96525507369731
 30
0.0
 41
0.078740157480315
 42
0.078740157480315
 50
270.00000000000011
  0
TEXT
  5
8E
  8
DIMENSIONS
  6
CONTINUOUS
 62
     1
 10
94.608791428773884
 20
152.16529583395629
 30
0.0
 40
3.9999999999999991
  1
62,00 mm
  7
ARIAL
 72
     1
 11
107.03171093764151
 21
154.16529583395629
 31
0.0
 73
     2
  0
LINE
  5
8F
  8
DIMENSIONS
  6
CONTINUOUS
 62
     1
 10
76.031661137117069
 20
162.6457223381943
 30
0.0
 11
76.031661137117069
 21
151.16529583395641
 31
0.0
  0
LINE
  5
90
  8
DIMENSIONS
  6
CONTINUOUS
 62
     1
 10
138.03176073816601
 20
162.64200646238351
 30
0.0
 11
138.03176073816601
 21
151.16529583395641
 31
0.0
  0
LINE
  5
91
  8
DIMENSIONS
  6
CONTINUOUS
 62
     1
 10
76.031661137117069
 20
154.16529583395629
 30
0.0
 11
90.30229948016256
 21
154.16529583395629
 31
0.0
  0
LINE
  5
92
  8
DIMENSIONS
  6
CONTINUOUS
 62
     1
 10
138.03176073816601
 20
154.16529583395629
 30
0.0
 11
123.76112239512049
 21
154.16529583395629
 31
0.0
  0
INSERT
  5
93
  8
DIMENSIONS
  6
CONTINUOUS
 62
     1
  2
LONGARROW
 10
76.031661137117069
 20
154.16529583395629
 30
0.0
 41
0.078740157480315
 42
0.078740157480315
  0
INSERT
  5
94
  8
DIMENSIONS
  6
CONTINUOUS
 62
     1
  2
LONGARROW
 10
138.03176073816601
 20
154.16529583395629
 30
0.0
 41
0.078740157480315
 42
0.078740157480315
 50
180.0
  0
TEXT
  5
95
  8
DIMENSIONS
  6
CONTINUOUS
 62
     1
 10
134.57349566554899
 20
177.25231270180259
 30
0.0
 40
3.9999999999999991
  1
19,53 mm
  7
ARIAL
 72
     1
 11
146.99641517441671
 21
179.25231270180259
 31
0.0
 73
     2
  0
LINE
  5
96
  8
DIMENSIONS
  6
CONTINUOUS
 62
     1
 10
138.9964151744166
 20
189.01878212886561
 30
0.0
 11
149.9964151744166
 21
189.01878212886561
 31
0.0
  0
LINE
  5
97
  8
DIMENSIONS
  6
CONTINUOUS
 62
     1
 10
137.03546405641461
 20
169.48584327473961
 30
0.0
 11
149.99641517441671
 21
169.48584327473961
 31
0.0
  0
LINE
  5
98
  8
DIMENSIONS
  6
CONTINUOUS
 62
     1
 10
146.9964151744166
 20
189.01878212886561
 30
0.0
 11
146.9964151744166
 21
182.25231270180259
 31
0.0
  0
LINE
  5
99
  8
DIMENSIONS
  6
CONTINUOUS
 62
     1
 10
146.99641517441671
 20
169.48584327473961
 30
0.0
 11
146.99641517441671
 21
176.25231270180259
 31
0.0
  0
INSERT
  5
9A
  8
DIMENSIONS
  6
CONTINUOUS
 62
     1
  2
LONGARROW
 10
146.9964151744166
 20
189.01878212886561
 30
0.0
 41
0.078740157480315
 42
0.078740157480315
 50
270.00000000000011
  0
INSERT
  5
9B
  8
DIMENSIONS
  6
CONTINUOUS
 62
     1
  2
LONGARROW
 10
146.99641517441671
 20
169.48584327473961
 30
0.0
 41
0.078740157480315
 42
0.078740157480315
 50
90.000000000000057
  0
TEXT
  5
9C
  8
DIMENSIONS
  6
CONTINUOUS
 62
     1
 10
131.05074081531831
 20
216.36682827709711
 30
0.0
 40
3.9999999999999991
  1
97,76 mm
  7
ARIAL
 72
     1
 11
143.473660324186
 21
218.36682827709711
 31
0.0
 73
     2
  0
LINE
  5
9D
  8
DIMENSIONS
  6
CONTINUOUS
 62
     1
 10
108.3392315204605
 20
267.24781327945459
 30
0.0
 11
146.473660324186
 21
267.24781327945459
 31
0.0
  0
LINE
  5
9E
  8
DIMENSIONS
  6
CONTINUOUS
 62
     1
 10
135.47366032418611
 20
169.48584327473961
 30
0.0
 11
146.47366032418611
 21
169.48584327473961
 31
0.0
  0
LINE
  5
9F
  8
DIMENSIONS
  6
CONTINUOUS
 62
     1
 10
143.473660324186
 20
267.24781327945459
 30
0.0
 11
143.473660324186
 21
221.36682827709711
 31
0.0
  0
LINE
  5
A0
  8
DIMENSIONS
  6
CONTINUOUS
 62
     1
 10
143.47366032418611
 20
169.48584327473961
 30
0.0
 11
143.47366032418611
 21
215.36682827709711
 31
0.0
  0
INSERT
  5
A1
  8
DIMENSIONS
  6
CONTINUOUS
 62
     1
  2
LONGARROW
 10
143.473660324186
 20
267.24781327945459
 30
0.0
 41
0.078740157480315
 42
0.078740157480315
 50
270.00000000000011
  0
INSERT
  5
A2
  8
DIMENSIONS
  6
CONTINUOUS
 62
     1
  2
LONGARROW
 10
143.47366032418611
 20
169.48584327473961
 30
0.0
 41
0.078740157480315
 42
0.078740157480315
 50
90.000000000000057
  0
LINE
  5
A3
  8
CONSTRUCTION
  6
CONTINUOUS
 62
     7
 10
71.0
 20
178.0
 30
0.0
 11
168.0
 21
178.0
 31
0.0
  0
LINE
  5
A4
  8
CONSTRUCTION
  6
CONTINUOUS
 62
     7
 10
71.0
 20
178.0
 30
0.0
 11
71.0
 21
188.0
 31
0.0
  0
LINE
  5
A5
  8
CONSTRUCTION
  6
CONTINUOUS
 62
     7
 10
167.99999999999989
 20
178.0
 30
0.0
 11
167.99999999999989
 21
188.0
 31
0.0
  0
LINE
  5
A6
  8
CONSTRUCTION
  6
CONTINUOUS
 62
     7
 10
167.0
 20
189.0
 30
0.0
 11
131.0
 21
189.0
 31
0.0
  0
LINE
  5
A7
  8
CONSTRUCTION
  6
CONTINUOUS
 62
     7
 10
72.0
 20
189.0
 30
0.0
 11
109.0
 21
189.0
 31
0.0
  0
LINE
  5
A8
  8
CONSTRUCTION
  6
CONTINUOUS
 62
     7
 10
110.0
 20
190.0
 30
0.0
 11
110.0
 21
205.0
 31
0.0
  0
LINE
  5
A9
  8
CONSTRUCTION
  6
CONTINUOUS
 62
     7
 10
130.0
 20
190.0
 30
0.0
 11
130.0
 21
205.0
 31
0.0
  0
LINE
  5
AA
  8
CONSTRUCTION
  6
CONTINUOUS
 62
     7
 10
82.0
 20
217.0
 30
0.0
 11
158.0
 21
217.0
 31
0.0
  0
LINE
  5
AB
  8
CONSTRUCTION
  6
CONTINUOUS
 62
     7
 10
79.999999999999986
 20
219.0
 30
0.0
 11
79.999999999999972
 21
235.0
 31
0.0
  0
LINE
  5
AC
  8
CONSTRUCTION
  6
CONTINUOUS
 62
     7
 10
160.0
 20
219.0
 30
0.0
 11
159.99999999999989
 21
235.0
 31
0.0
  0
LINE
  5
AD
  8
CONSTRUCTION
  6
CONTINUOUS
 62
     7
 10
82.000000000000014
 20
236.99999999999989
 30
0.0
 11
158.0
 21
236.99999999999989
 31
0.0
  0
TEXT
  5
AE
  8
CONSTRUCTION
  6
CONTINUOUS
 62
     7
 10
110.9611186903137
 20
165.0
 30
0.0
 40
3.9999999999999991
  1
97 mm
  7
ARIAL
 72
     1
 11
119.5
 21
167.0
 31
0.0
 73
     2
  0
LINE
  5
AF
  8
CONSTRUCTION
  6
CONTINUOUS
 62
     7
 10
167.99999999999989
 20
175.0
 30
0.0
 11
167.99999999999989
 21
164.0
 31
0.0
  0
LINE
  5
B0
  8
CONSTRUCTION
  6
CONTINUOUS
 62
     7
 10
71.0
 20
175.0
 30
0.0
 11
71.0
 21
164.0
 31
0.0
  0
LINE
  5
B1
  8
CONSTRUCTION
  6
CONTINUOUS
 62
     7
 10
167.99999999999989
 20
167.0
 30
0.0
 11
130.99965378120541
 21
167.0
 31
0.0
  0
LINE
  5
B2
  8
CONSTRUCTION
  6
CONTINUOUS
 62
     7
 10
71.0
 20
167.0
 30
0.0
 11
108.0003462187945
 21
167.0
 31
0.0
  0
INSERT
  5
B3
  8
CONSTRUCTION
  6
CONTINUOUS
 62
     7
  2
LONGARROW
 10
167.99999999999989
 20
167.0
 30
0.0
 41
0.078740157480315
 42
0.078740157480315
 50
180.0
  0
INSERT
  5
B4
  8
CONSTRUCTION
  6
CONTINUOUS
 62
     7
  2
LONGARROW
 10
71.0
 20
167.0
 30
0.0
 41
0.078740157480315
 42
0.078740157480315
  0
TEXT
  5
B5
  8
CONSTRUCTION
  6
CONTINUOUS
 62
     7
 10
51.461118690313782
 20
196.0
 30
0.0
 40
3.9999999999999991
  1
11 mm
  7
ARIAL
 72
     1
 11
60.0
 21
198.0
 31
0.0
 73
     2
  0
LINE
  5
B6
  8
CONSTRUCTION
  6
CONTINUOUS
 62
     7
 10
68.0
 20
178.0
 30
0.0
 11
57.000000000000021
 21
178.0
 31
0.0
  0
LINE
  5
B7
  8
CONSTRUCTION
  6
CONTINUOUS
 62
     7
 10
68.0
 20
189.0
 30
0.0
 11
57.000000000000021
 21
189.0
 31
0.0
  0
LINE
  5
B8
  8
CONSTRUCTION
  6
CONTINUOUS
 62
     7
 10
60.000000000000028
 20
178.0
 30
0.0
 11
60.000000000000028
 21
172.0
 31
0.0
  0
LINE
  5
B9
  8
CONSTRUCTION
  6
CONTINUOUS
 62
     7
 10
60.000000000000007
 20
189.0
 30
0.0
 11
60.0
 21
195.0
 31
0.0
  0
INSERT
  5
BA
  8
CONSTRUCTION
  6
CONTINUOUS
 62
     7
  2
LONGARROW
 10
60.000000000000028
 20
178.0
 30
0.0
 41
0.078740157480315
 42
0.078740157480315
 50
270.00000000000011
  0
INSERT
  5
BB
  8
CONSTRUCTION
  6
CONTINUOUS
 62
     7
  2
LONGARROW
 10
60.000000000000007
 20
189.0
 30
0.0
 41
0.078740157480315
 42
0.078740157480315
 50
90.000000000000057
  0
LINE
  5
BC
  8
CONSTRUCTION
  6
CONTINUOUS
 62
     7
 10
71.5
 20
128.0
 30
0.0
 11
166.5
 21
128.0
 31
0.0
  0
LINE
  5
BD
  8
CONSTRUCTION
  6
CONTINUOUS
 62
     7
 10
70.499999999999986
 20
127.0
 30
0.0
 11
70.500000000000014
 21
79.0
 31
0.0
  0
LINE
  5
BE
  8
CONSTRUCTION
  6
CONTINUOUS
 62
     7
 10
71.5
 20
77.999999999999986
 30
0.0
 11
166.5
 21
77.999999999999986
 31
0.0
  0
LINE
  5
BF
  8
CONSTRUCTION
  6
CONTINUOUS
 62
     7
 10
167.5
 20
127.0
 30
0.0
 11
167.5
 21
78.999999999999986
 31
0.0
  0
CIRCLE
  5
C0
  8
CONSTRUCTION
  6
HIDDEN
 62
     7
 10
119.0
 20
103.0
 30
0.0
 40
7.0
  0
CIRCLE
  5
C1
  8
CONSTRUCTION
  6
CONTINUOUS
 62
     7
 10
84.999999999999986
 20
118.0
 30
0.0
 40
4.9999999999999991
  0
CIRCLE
  5
C2
  8
CONSTRUCTION
  6
CONTINUOUS
 62
     7
 10
84.999999999999986
 20
88.0
 30
0.0
 40
4.9999999999999991
  0
CIRCLE
  5
C3
  8
CONSTRUCTION
  6
CONTINUOUS
 62
     7
 10
79.999999999999986
 20
103.0
 30
0.0
 40
4.9999999999999991
  0
CIRCLE
  5
C4
  8
CONSTRUCTION
  6
CONTINUOUS
 62
     7
 10
153.0
 20
118.0
 30
0.0
 40
4.9999999999999991
  0
CIRCLE
  5
C5
  8
CONSTRUCTION
  6
CONTINUOUS
 62
     7
 10
153.0
 20
88.0
 30
0.0
 40
4.9999999999999991
  0
CIRCLE
  5
C6
  8
CONSTRUCTION
  6
CONTINUOUS
 62
     7
 10
157.7985686640055
 20
103.0826508555954
 30
0.0
 40
4.9999999999999991
  0
TEXT
  5
C7
  8
CONSTRUCTION
  6
CONTINUOUS
 62
     7
 10
39.461118690313782
 20
121.0
 30
0.0
 40
3.9999999999999991
  1
10 mm
  7
ARIAL
 72
     1
 11
48.0
 21
123.0
 31
0.0
 73
     2
  0
LINE
  5
C8
  8
CONSTRUCTION
  6
CONTINUOUS
 62
     7
 10
67.000000000000014
 20
118.0
 30
0.0
 11
53.000000000000007
 21
118.0
 31
0.0
  0
LINE
  5
C9
  8
CONSTRUCTION
  6
CONTINUOUS
 62
     7
 10
67.000000000000014
 20
128.0
 30
0.0
 11
53.0
 21
128.0
 31
0.0
  0
LINE
  5
CA
  8
CONSTRUCTION
  6
CONTINUOUS
 62
     7
 10
56.000000000000007
 20
118.0
 30
0.0
 11
56.000000000000021
 21
112.0
 31
0.0
  0
LINE
  5
CB
  8
CONSTRUCTION
  6
CONTINUOUS
 62
     7
 10
56.0
 20
128.0
 30
0.0
 11
55.999999999999979
 21
133.99999999999989
 31
0.0
  0
INSERT
  5
CC
  8
CONSTRUCTION
  6
CONTINUOUS
 62
     7
  2
LONGARROW
 10
56.000000000000007
 20
118.0
 30
0.0
 41
0.078740157480315
 42
0.078740157480315
 50
270.00000000000011
  0
INSERT
  5
CD
  8
CONSTRUCTION
  6
CONTINUOUS
 62
     7
  2
LONGARROW
 10
56.0
 20
128.0
 30
0.0
 41
0.078740157480315
 42
0.078740157480315
 50
90.000000000000057
  0
TEXT
  5
CE
  8
CONSTRUCTION
  6
CONTINUOUS
 62
     7
 10
40.461118690313782
 20
81.0
 30
0.0
 40
3.9999999999999991
  1
10 mm
  7
ARIAL
 72
     1
 11
49.0
 21
83.0
 31
0.0
 73
     2
  0
LINE
  5
CF
  8
CONSTRUCTION
  6
CONTINUOUS
 62
     7
 10
65.0
 20
77.999999999999986
 30
0.0
 11
54.000000000000021
 21
77.999999999999986
 31
0.0
  0
LINE
  5
D0
  8
CONSTRUCTION
  6
CONTINUOUS
 62
     7
 10
65.0
 20
88.0
 30
0.0
 11
54.0
 21
88.0
 31
0.0
  0
LINE
  5
D1
  8
CONSTRUCTION
  6
CONTINUOUS
 62
     7
 10
57.000000000000007
 20
77.999999999999986
 30
0.0
 11
57.000000000000021
 21
71.999999999999986
 31
0.0
  0
LINE
  5
D2
  8
CONSTRUCTION
  6
CONTINUOUS
 62
     7
 10
57.0
 20
88.0
 30
0.0
 11
56.999999999999993
 21
94.0
 31
0.0
  0
INSERT
  5
D3
  8
CONSTRUCTION
  6
CONTINUOUS
 62
     7
  2
LONGARROW
 10
57.000000000000007
 20
77.999999999999986
 30
0.0
 41
0.078740157480315
 42
0.078740157480315
 50
270.00000000000011
  0
INSERT
  5
D4
  8
CONSTRUCTION
  6
CONTINUOUS
 62
     7
  2
LONGARROW
 10
57.0
 20
88.0
 30
0.0
 41
0.078740157480315
 42
0.078740157480315
 50
90.000000000000057
  0
TEXT
  5
D5
  8
CONSTRUCTION
  6
CONTINUOUS
 62
     7
 10
170.46111869031381
 20
113.5
 30
0.0
 40
3.9999999999999991
  1
25 mm
  7
ARIAL
 72
     1
 11
179.0
 21
115.5
 31
0.0
 73
     2
  0
LINE
  5
D6
  8
CONSTRUCTION
  6
CONTINUOUS
 62
     7
 10
172.99999999999989
 20
128.0
 30
0.0
 11
182.0
 21
128.0
 31
0.0
  0
LINE
  5
D7
  8
CONSTRUCTION
  6
CONTINUOUS
 62
     7
 10
172.99999999999989
 20
103.0
 30
0.0
 11
182.0
 21
103.0
 31
0.0
  0
LINE
  5
D8
  8
CONSTRUCTION
  6
CONTINUOUS
 62
     7
 10
179.0
 20
128.0
 30
0.0
 11
179.0
 21
118.5
 31
0.0
  0
LINE
  5
D9
  8
CONSTRUCTION
  6
CONTINUOUS
 62
     7
 10
179.0
 20
103.0
 30
0.0
 11
179.0
 21
112.5
 31
0.0
  0
INSERT
  5
DA
  8
CONSTRUCTION
  6
CONTINUOUS
 62
     7
  2
LONGARROW
 10
179.0
 20
128.0
 30
0.0
 41
0.078740157480315
 42
0.078740157480315
 50
270.00000000000011
  0
INSERT
  5
DB
  8
CONSTRUCTION
  6
CONTINUOUS
 62
     7
  2
LONGARROW
 10
179.0
 20
103.0
 30
0.0
 41
0.078740157480315
 42
0.078740157480315
 50
90.000000000000057
  0
TEXT
  5
DC
  8
CONSTRUCTION
  6
CONTINUOUS
 62
     7
 10
130.46111869031381
 20
101.0
 30
0.0
 40
3.9999999999999991
  1
50 mm
  7
ARIAL
 72
     1
 11
139.0
 21
103.0
 31
0.0
 73
     2
  0
LINE
  5
DD
  8
CONSTRUCTION
  6
CONTINUOUS
 62
     7
 10
146.99999999999989
 20
77.999999999999986
 30
0.0
 11
136.0
 21
77.999999999999986
 31
0.0
  0
LINE
  5
DE
  8
CONSTRUCTION
  6
CONTINUOUS
 62
     7
 10
146.99999999999989
 20
128.0
 30
0.0
 11
135.99999999999989
 21
128.0
 31
0.0
  0
LINE
  5
DF
  8
CONSTRUCTION
  6
CONTINUOUS
 62
     7
 10
139.0
 20
77.999999999999986
 30
0.0
 11
139.0
 21
100.0
 31
0.0
  0
LINE
  5
E0
  8
CONSTRUCTION
  6
CONTINUOUS
 62
     7
 10
138.99999999999989
 20
128.0
 30
0.0
 11
139.0
 21
106.0
 31
0.0
  0
INSERT
  5
E1
  8
CONSTRUCTION
  6
CONTINUOUS
 62
     7
  2
LONGARROW
 10
139.0
 20
77.999999999999986
 30
0.0
 41
0.078740157480315
 42
0.078740157480315
 50
90.000000000000057
  0
INSERT
  5
E2
  8
CONSTRUCTION
  6
CONTINUOUS
 62
     7
  2
LONGARROW
 10
138.99999999999989
 20
128.0
 30
0.0
 41
0.078740157480315
 42
0.078740157480315
 50
270.00000000000011
  0
TEXT
  5
E3
  8
CONSTRUCTION
  6
CONTINUOUS
 62
     7
 10
110.4611186903137
 20
57.000000000000057
 30
0.0
 40
3.9999999999999991
  1
97 mm
  7
ARIAL
 72
     1
 11
119.0
 21
59.000000000000057
 31
0.0
 73
     2
  0
LINE
  5
E4
  8
CONSTRUCTION
  6
CONTINUOUS
 62
     7
 10
167.5
 20
73.0
 30
0.0
 11
167.5
 21
56.000000000000057
 31
0.0
  0
LINE
  5
E5
  8
CONSTRUCTION
  6
CONTINUOUS
 62
     7
 10
70.499999999999972
 20
73.0
 30
0.0
 11
70.499999999999972
 21
56.000000000000057
 31
0.0
  0
LINE
  5
E6
  8
CONSTRUCTION
  6
CONTINUOUS
 62
     7
 10
167.5
 20
59.000000000000057
 30
0.0
 11
130.49965378120541
 21
59.000000000000057
 31
0.0
  0
LINE
  5
E7
  8
CONSTRUCTION
  6
CONTINUOUS
 62
     7
 10
70.499999999999972
 20
59.000000000000057
 30
0.0
 11
107.5003462187946
 21
59.000000000000057
 31
0.0
  0
INSERT
  5
E8
  8
CONSTRUCTION
  6
CONTINUOUS
 62
     7
  2
LONGARROW
 10
167.5
 20
59.000000000000057
 30
0.0
 41
0.078740157480315
 42
0.078740157480315
 50
180.0
  0
INSERT
  5
E9
  8
CONSTRUCTION
  6
CONTINUOUS
 62
     7
  2
LONGARROW
 10
70.499999999999972
 20
59.000000000000057
 30
0.0
 41
0.078740157480315
 42
0.078740157480315
  0
LINE
  5
EA
  8
CONSTRUCTION
  6
CONTINUOUS
 62
     7
 10
81.018043737311416
 20
114.97609121797041
 30
0.0
 11
76.239696222085115
 21
111.347400679535
 31
0.0
  0
LINE
  5
EB
  8
CONSTRUCTION
  6
CONTINUOUS
 62
     7
 10
88.981956262688556
 20
121.02390878202949
 30
0.0
 11
93.760303777914871
 21
124.6525993204649
 31
0.0
  0
LINE
  5
EC
  8
CONSTRUCTION
  6
CONTINUOUS
 62
     7
 10
93.760303777914871
 20
124.6525993204649
 30
0.0
 11
99.760303777914885
 21
124.6525993204649
 31
0.0
  0
INSERT
  5
ED
  8
CONSTRUCTION
  6
CONTINUOUS
 62
     7
  2
LONGARROW
 10
88.981956262688556
 20
121.02390878202949
 30
0.0
 41
0.078740157480315
 42
0.078740157480315
 50
37.213138866825837
  0
INSERT
  5
EE
  8
CONSTRUCTION
  6
CONTINUOUS
 62
     7
  2
LONGARROW
 10
81.018043737311416
 20
114.97609121797041
 30
0.0
 41
0.078740157480315
 42
0.078740157480315
 50
217.21313886682589
  0
TEXT
  5
EF
  8
1
  6
CONTINUOUS
 62
     7
 10
103.58069006635689
 20
122.6525993204649
 30
0.0
 40
3.9999999999999991
  1
ø 10 mm
  7
ARIAL
 72
     1
 11
114.6025181700405
 21
124.6525993204649
 31
0.0
 73
     2
  0
ARC
  5
F0
  8
CONSTRUCTION
  6
CONTINUOUS
 62
     7
 10
110.0588235294117
 20
227.7647058823529
 30
0.0
 40
22.76478188161807
 50
208.2205377161973
 51
269.85194921965569
  0
ARC
  5
F1
  8
CONSTRUCTION
  6
CONTINUOUS
 62
     7
 10
129.9411764705882
 20
227.76470588235301
 30
0.0
 40
22.764781881618099
 50
270.14805078034419
 51
331.77946228380262
  0
TEXT
  5
F2
  8
CONSTRUCTION
  6
CONTINUOUS
 62
     7
 10
171.46111869031381
 20
205.0
 30
0.0
 40
3.9999999999999991
  1
58 mm
  7
ARIAL
 72
     1
 11
180.0
 21
207.0
 31
0.0
 73
     2
  0
LINE
  5
F3
  8
CONSTRUCTION
  6
CONTINUOUS
 62
     7
 10
171.99999999999989
 20
236.0
 30
0.0
 11
183.0
 21
236.0
 31
0.0
  0
LINE
  5
F4
  8
CONSTRUCTION
  6
CONTINUOUS
 62
     7
 10
171.99999999999989
 20
178.0
 30
0.0
 11
183.0
 21
178.0
 31
0.0
  0
LINE
  5
F5
  8
CONSTRUCTION
  6
CONTINUOUS
 62
     7
 10
180.0
 20
236.0
 30
0.0
 11
180.0
 21
210.0
 31
0.0
  0
LINE
  5
F6
  8
CONSTRUCTION
  6
CONTINUOUS
 62
     7
 10
180.0
 20
178.0
 30
0.0
 11
180.0
 21
204.0
 31
0.0
  0
INSERT
  5
F7
  8
CONSTRUCTION
  6
CONTINUOUS
 62
     7
  2
LONGARROW
 10
180.0
 20
236.0
 30
0.0
 41
0.078740157480315
 42
0.078740157480315
 50
270.00000000000011
  0
INSERT
  5
F8
  8
CONSTRUCTION
  6
CONTINUOUS
 62
     7
  2
LONGARROW
 10
180.0
 20
178.0
 30
0.0
 41
0.078740157480315
 42
0.078740157480315
 50
90.000000000000057
  0
TEXT
  5
F9
  8
CONSTRUCTION
  6
CONTINUOUS
 62
     7
 10
57.46111869031381
 20
225.0
 30
0.0
 40
3.9999999999999991
  1
20 mm
  7
ARIAL
 72
     1
 11
66.000000000000028
 21
227.0
 31
0.0
 73
     2
  0
LINE
  5
FA
  8
CONSTRUCTION
  6
CONTINUOUS
 62
     7
 10
75.0
 20
217.0
 30
0.0
 11
63.000000000000043
 21
217.0
 31
0.0
  0
LINE
  5
FB
  8
CONSTRUCTION
  6
CONTINUOUS
 62
     7
 10
74.0
 20
237.0
 30
0.0
 11
63.000000000000021
 21
237.0
 31
0.0
  0
LINE
  5
FC
  8
CONSTRUCTION
  6
CONTINUOUS
 62
     7
 10
66.000000000000043
 20
217.0
 30
0.0
 11
66.000000000000028
 21
223.99999999999989
 31
0.0
  0
LINE
  5
FD
  8
CONSTRUCTION
  6
CONTINUOUS
 62
     7
 10
66.000000000000014
 20
237.0
 30
0.0
 11
66.000000000000028
 21
230.0
 31
0.0
  0
INSERT
  5
FE
  8
CONSTRUCTION
  6
CONTINUOUS
 62
     7
  2
LONGARROW
 10
66.000000000000043
 20
217.0
 30
0.0
 41
0.078740157480315
 42
0.078740157480315
 50
90.000000000000057
  0
INSERT
  5
FF
  8
CONSTRUCTION
  6
CONTINUOUS
 62
     7
  2
LONGARROW
 10
66.000000000000014
 20
237.0
 30
0.0
 41
0.078740157480315
 42
0.078740157480315
 50
270.00000000000011
  0
TEXT
  5
100
  8
CONSTRUCTION
  6
CONTINUOUS
 62
     7
 10
111.4611186903137
 20
250.0
 30
0.0
 40
3.9999999999999991
  1
80 mm
  7
ARIAL
 72
     1
 11
120.0
 21
252.0
 31
0.0
 73
     2
  0
LINE
  5
101
  8
CONSTRUCTION
  6
CONTINUOUS
 62
     7
 10
79.999999999999986
 20
244.0
 30
0.0
 11
79.999999999999986
 21
254.99999999999989
 31
0.0
  0
LINE
  5
102
  8
CONSTRUCTION
  6
CONTINUOUS
 62
     7
 10
159.99999999999989
 20
242.0
 30
0.0
 11
159.99999999999989
 21
254.99999999999989
 31
0.0
  0
LINE
  5
103
  8
CONSTRUCTION
  6
CONTINUOUS
 62
     7
 10
79.999999999999986
 20
252.0
 30
0.0
 11
108.5003462187945
 21
252.0
 31
0.0
  0
LINE
  5
104
  8
CONSTRUCTION
  6
CONTINUOUS
 62
     7
 10
159.99999999999989
 20
252.0
 30
0.0
 11
131.49965378120541
 21
252.0
 31
0.0
  0
INSERT
  5
105
  8
CONSTRUCTION
  6
CONTINUOUS
 62
     7
  2
LONGARROW
 10
79.999999999999986
 20
252.0
 30
0.0
 41
0.078740157480315
 42
0.078740157480315
  0
INSERT
  5
106
  8
CONSTRUCTION
  6
CONTINUOUS
 62
     7
  2
LONGARROW
 10
159.99999999999989
 20
252.0
 30
0.0
 41
0.078740157480315
 42
0.078740157480315
 50
180.0
  0
TEXT
  5
107
  8
CONSTRUCTION
  6
CONTINUOUS
 62
     7
 10
110.4611186903137
 20
65.000000000000028
 30
0.0
 40
3.9999999999999991
  1
68 mm
  7
ARIAL
 72
     1
 11
119.0
 21
67.000000000000014
 31
0.0
 73
     2
  0
LINE
  5
108
  8
CONSTRUCTION
  6
CONTINUOUS
 62
     7
 10
153.0
 20
72.0
 30
0.0
 11
153.0
 21
64.000000000000043
 31
0.0
  0
LINE
  5
109
  8
CONSTRUCTION
  6
CONTINUOUS
 62
     7
 10
84.999999999999986
 20
74.0
 30
0.0
 11
84.999999999999986
 21
64.000000000000043
 31
0.0
  0
LINE
  5
10A
  8
CONSTRUCTION
  6
CONTINUOUS
 62
     7
 10
153.0
 20
67.000000000000014
 30
0.0
 11
130.49965378120541
 21
67.000000000000014
 31
0.0
  0
LINE
  5
10B
  8
CONSTRUCTION
  6
CONTINUOUS
 62
     7
 10
84.999999999999986
 20
67.000000000000014
 30
0.0
 11
107.5003462187946
 21
67.000000000000014
 31
0.0
  0
INSERT
  5
10C
  8
CONSTRUCTION
  6
CONTINUOUS
 62
     7
  2
LONGARROW
 10
153.0
 20
67.000000000000014
 30
0.0
 41
0.078740157480315
 42
0.078740157480315
 50
180.0
  0
INSERT
  5
10D
  8
CONSTRUCTION
  6
CONTINUOUS
 62
     7
  2
LONGARROW
 10
84.999999999999986
 20
67.000000000000014
 30
0.0
 41
0.078740157480315
 42
0.078740157480315
  0
TEXT
  5
10E
  8
CONSTRUCTION
  6
CONTINUOUS
 62
     7
 10
110.4611186903137
 20
151.0
 30
0.0
 40
3.9999999999999991
  1
78 mm
  7
ARIAL
 72
     1
 11
119.0
 21
153.0
 31
0.0
 73
     2
  0
LINE
  5
10F
  8
CONSTRUCTION
  6
CONTINUOUS
 62
     7
 10
79.999999999999986
 20
125.0
 30
0.0
 11
79.999999999999986
 21
156.0
 31
0.0
  0
LINE
  5
110
  8
CONSTRUCTION
  6
CONTINUOUS
 62
     7
 10
158.0
 20
124.0
 30
0.0
 11
158.0
 21
156.0
 31
0.0
  0
LINE
  5
111
  8
CONSTRUCTION
  6
CONTINUOUS
 62
     7
 10
79.999999999999986
 20
153.0
 30
0.0
 11
107.5003462187946
 21
153.0
 31
0.0
  0
LINE
  5
112
  8
CONSTRUCTION
  6
CONTINUOUS
 62
     7
 10
158.0
 20
153.0
 30
0.0
 11
130.49965378120541
 21
153.0
 31
0.0
  0
INSERT
  5
113
  8
CONSTRUCTION
  6
CONTINUOUS
 62
     7
  2
LONGARROW
 10
79.999999999999986
 20
153.0
 30
0.0
 41
0.078740157480315
 42
0.078740157480315
  0
INSERT
  5
114
  8
CONSTRUCTION
  6
CONTINUOUS
 62
     7
  2
LONGARROW
 10
158.0
 20
153.0
 30
0.0
 41
0.078740157480315
 42
0.078740157480315
 50
180.0
  0
TEXT
  5
115
  8
CONSTRUCTION
  6
CONTINUOUS
 62
     7
 10
176.4611186903137
 20
94.0
 30
0.0
 40
3.9999999999999991
  1
50 mm
  7
ARIAL
 72
     1
 11
184.99999999999989
 21
96.0
 31
0.0
 73
     2
  0
LINE
  5
116
  8
CONSTRUCTION
  6
CONTINUOUS
 62
     7
 10
183.0
 20
128.0
 30
0.0
 11
193.99999999999989
 21
128.0
 31
0.0
  0
LINE
  5
117
  8
CONSTRUCTION
  6
CONTINUOUS
 62
     7
 10
180.0
 20
77.999999999999986
 30
0.0
 11
194.0
 21
77.999999999999986
 31
0.0
  0
LINE
  5
118
  8
CONSTRUCTION
  6
CONTINUOUS
 62
     7
 10
191.0
 20
128.0
 30
0.0
 11
191.0
 21
98.999999999999986
 31
0.0
  0
LINE
  5
119
  8
CONSTRUCTION
  6
CONTINUOUS
 62
     7
 10
191.0
 20
77.999999999999986
 30
0.0
 11
191.0
 21
93.0
 31
0.0
  0
INSERT
  5
11A
  8
CONSTRUCTION
  6
CONTINUOUS
 62
     7
  2
LONGARROW
 10
191.0
 20
128.0
 30
0.0
 41
0.078740157480315
 42
0.078740157480315
 50
270.00000000000011
  0
INSERT
  5
11B
  8
CONSTRUCTION
  6
CONTINUOUS
 62
     7
  2
LONGARROW
 10
191.0
 20
77.999999999999986
 30
0.0
 41
0.078740157480315
 42
0.078740157480315
 50
90.000000000000057
  0
ARC
  5
11C
  8
CONSTRUCTION
  6
CONTINUOUS
 62
     7
 10
71.999999999999986
 20
188.0
 30
0.0
 40
0.999999999999998
 50
90.000000000000057
 51
180.0
  0
ARC
  5
11D
  8
CONSTRUCTION
  6
CONTINUOUS
 62
     7
 10
109.0
 20
190.0
 30
0.0
 40
0.999999999999998
 50
270.0
 51
0.0000000000000799
  0
ARC
  5
11E
  8
CONSTRUCTION
  6
CONTINUOUS
 62
     7
 10
131.0
 20
190.0
 30
0.0
 40
0.999999999999998
 50
180.0
 51
270.00000000000011
  0
ARC
  5
11F
  8
CONSTRUCTION
  6
CONTINUOUS
 62
     7
 10
81.999999999999986
 20
235.0
 30
0.0
 40
2.0000000000000009
 50
90.000000000000057
 51
180.0
  0
ARC
  5
120
  8
CONSTRUCTION
  6
CONTINUOUS
 62
     7
 10
158.0
 20
235.0
 30
0.0
 40
1.999999999999996
 50
0.0000000000000509
 51
90.000000000000057
  0
ARC
  5
121
  8
CONSTRUCTION
  6
CONTINUOUS
 62
     7
 10
82.000000000000085
 20
219.0
 30
0.0
 40
1.999999746000102
 50
179.9999999999996
 51
269.99999999999881
  0
ARC
  5
122
  8
CONSTRUCTION
  6
CONTINUOUS
 62
     7
 10
158.0
 20
219.0
 30
0.0
 40
2.0000000000000191
 50
270.00000000000068
 51
0.0000000000000799
  0
ARC
  5
123
  8
CONSTRUCTION
  6
CONTINUOUS
 62
     7
 10
119.5378878395353
 20
102.62972697487071
 30
0.0
 40
40.0
 50
218.00667964298489
 51
321.99405947175228
  0
ARC
  5
124
  8
CONSTRUCTION
  6
CONTINUOUS
 62
     7
 10
119.5378878395353
 20
102.62972697487071
 30
0.0
 40
40.0
 50
39.364886382648123
 51
140.6210032066144
  0
TEXT
  5
125
  8
CONSTRUCTION
  6
CONTINUOUS
 62
     7
 10
114.4517295960617
 20
118.2029611106194
 30
0.0
 40
3.0
  1
(X6)
  7
ARIAL
  0
TEXT
  5
126
  8
CONSTRUCTION
  6
CONTINUOUS
 62
     7
 10
146.49999999999989
 20
16.0
 30
0.0
 40
3.9999999999999991
  1
BORRMALL  1:1
  7
ARIAL
  0
POLYLINE
  5
127
  8
1
  6
CONTINUOUS
 62
     7
 66
     1
 10
0.0
 20
0.0
 30
0.0
 70
     1
  0
VERTEX
  5
182
  8
1
  6
CONTINUOUS
 62
     7
 10
128.80644324314801
 20
224.66496805756989
 30
0.0
  0
VERTEX
  5
183
  8
1
  6
CONTINUOUS
 62
     7
 10
132.12715109039331
 20
227.13812091334711
 30
0.0
  0
VERTEX
  5
184
  8
1
  6
CONTINUOUS
 62
     7
 10
129.17320611954889
 20
229.4001649497261
 30
0.0
  0
VERTEX
  5
185
  8
1
  6
CONTINUOUS
 62
     7
 10
130.50881171618221
 20
229.4061610706548
 30
0.0
  0
VERTEX
  5
186
  8
1
  6
CONTINUOUS
 62
     7
 10
132.12385359647379
 20
228.1900061832911
 30
0.0
  0
VERTEX
  5
187
  8
1
  6
CONTINUOUS
 62
     7
 10
132.35762805086719
 20
228.00811655635471
 30
0.0
  0
VERTEX
  5
188
  8
1
  6
CONTINUOUS
 62
     7
 10
132.54889480061399
 20
227.86033718300141
 30
0.0
  0
VERTEX
  5
189
  8
1
  6
CONTINUOUS
 62
     7
 10
132.69768968803939
 20
227.7352345276887
 30
0.0
  0
VERTEX
  5
18A
  8
1
  6
CONTINUOUS
 62
     7
 10
132.8040485554688
 20
227.6213750548734
 30
0.0
  0
VERTEX
  5
18B
  8
1
  6
CONTINUOUS
 62
     7
 10
133.14242560335609
 20
227.88586919672221
 30
0.0
  0
VERTEX
  5
18C
  8
1
  6
CONTINUOUS
 62
     7
 10
133.50196689775379
 20
228.1618920506366
 30
0.0
  0
VERTEX
  5
18D
  8
1
  6
CONTINUOUS
 62
     7
 10
135.19403134881651
 20
229.42719508216641
 30
0.0
  0
VERTEX
  5
18E
  8
1
  6
CONTINUOUS
 62
     7
 10
136.4872367677788
 20
229.43300085004969
 30
0.0
  0
VERTEX
  5
18F
  8
1
  6
CONTINUOUS
 62
     7
 10
133.48388509121159
 20
227.16707928188421
 30
0.0
  0
VERTEX
  5
190
  8
1
  6
CONTINUOUS
 62
     7
 10
136.7352764676059
 20
224.70056407705121
 30
0.0
  0
VERTEX
  5
191
  8
1
  6
CONTINUOUS
 62
     7
 10
135.3148705156309
 20
224.6941872500318
 30
0.0
  0
VERTEX
  5
192
  8
1
  6
CONTINUOUS
 62
     7
 10
133.12599254377361
 20
226.36511379299779
 30
0.0
  0
VERTEX
  5
193
  8
1
  6
CONTINUOUS
 62
     7
 10
132.76469497544079
 20
226.64933418068409
 30
0.0
  0
VERTEX
  5
194
  8
1
  6
CONTINUOUS
 62
     7
 10
132.6378170233549
 20
226.5458613016622
 30
0.0
  0
VERTEX
  5
195
  8
1
  6
CONTINUOUS
 62
     7
 10
132.53210331777939
 20
226.45391713470579
 30
0.0
  0
VERTEX
  5
196
  8
1
  6
CONTINUOUS
 62
     7
 10
132.44751801638881
 20
226.38493521535801
 30
0.0
  0
VERTEX
  5
197
  8
1
  6
CONTINUOUS
 62
     7
 10
132.3628968726731
 20
226.3273868315529
 30
0.0
  0
VERTEX
  5
198
  8
1
  6
CONTINUOUS
 62
     7
 10
130.18444901745221
 20
224.67115453154389
 30
0.0
  0
SEQEND
  5
199
  8
1
  6
CONTINUOUS
 62
     7
  0
POLYLINE
  5
128
  8
1
  6
CONTINUOUS
 62
     7
 66
     1
 10
0.0
 20
0.0
 30
0.0
 70
     1
  0
VERTEX
  5
19A
  8
1
  6
CONTINUOUS
 62
     7
 10
102.7248496092965
 20
226.4304382547032
 30
0.0
  0
VERTEX
  5
19B
  8
1
  6
CONTINUOUS
 62
     7
 10
102.7248496092965
 20
229.2695910605847
 30
0.0
  0
VERTEX
  5
19C
  8
1
  6
CONTINUOUS
 62
     7
 10
104.9946070476764
 20
229.2695910605847
 30
0.0
  0
VERTEX
  5
19D
  8
1
  6
CONTINUOUS
 62
     7
 10
105.32246089988681
 20
229.2627332035656
 30
0.0
  0
VERTEX
  5
19E
  8
1
  6
CONTINUOUS
 62
     7
 10
105.599875697911
 20
229.2490174895276
 30
0.0
  0
VERTEX
  5
19F
  8
1
  6
CONTINUOUS
 62
     7
 10
105.83946120529561
 20
229.22844391847039
 30
0.0
  0
VERTEX
  5
1A0
  8
1
  6
CONTINUOUS
 62
     7
 10
106.0412174220404
 20
229.19415463337521
 30
0.0
  0
VERTEX
  5
1A1
  8
1
  6
CONTINUOUS
 62
     7
 10
106.20514434814559
 20
229.14614963424199
 30
0.0
  0
VERTEX
  5
1A2
  8
1
  6
CONTINUOUS
 62
     7
 10
106.35646151070431
 20
229.0844289210707
 30
0.0
  0
VERTEX
  5
1A3
  8
1
  6
CONTINUOUS
 62
     7
 10
106.4951689097164
 20
229.0089924938612
 30
0.0
  0
VERTEX
  5
1A4
  8
1
  6
CONTINUOUS
 62
     7
 10
106.6086567816354
 20
228.9198403526137
 30
0.0
  0
VERTEX
  5
1A5
  8
1
  6
CONTINUOUS
 62
     7
 10
106.7095348900078
 20
228.82383035434719
 30
0.0
  0
VERTEX
  5
1A6
  8
1
  6
CONTINUOUS
 62
     7
 10
106.77258370774059
 20
228.7141046420426
 30
0.0
  0
VERTEX
  5
1A7
  8
1
  6
CONTINUOUS
 62
     7
 10
106.8104129983803
 20
228.604378929738
 30
0.0
  0
VERTEX
  5
1A8
  8
1
  6
CONTINUOUS
 62
     7
 10
106.82302276192679
 20
228.49465321743341
 30
0.0
  0
VERTEX
  5
1A9
  8
1
  6
CONTINUOUS
 62
     7
 10
106.79780323483369
 20
228.35063822003369
 30
0.0
  0
VERTEX
  5
1AA
  8
1
  6
CONTINUOUS
 62
     7
 10
106.734754417101
 20
228.21348107965289
 30
0.0
  0
VERTEX
  5
1AB
  8
1
  6
CONTINUOUS
 62
     7
 10
106.621266545182
 20
228.09003965331021
 30
0.0
  0
VERTEX
  5
1AC
  8
1
  6
CONTINUOUS
 62
     7
 10
106.4699493826233
 20
227.9803139410057
 30
0.0
  0
VERTEX
  5
1AD
  8
1
  6
CONTINUOUS
 62
     7
 10
106.2681931658784
 20
227.89116179975809
 30
0.0
  0
VERTEX
  5
1AE
  8
1
  6
CONTINUOUS
 62
     7
 10
106.0159978949473
 20
227.81572537254871
 30
0.0
  0
VERTEX
  5
1AF
  8
1
  6
CONTINUOUS
 62
     7
 10
105.7259733333766
 20
227.75400465937739
 30
0.0
  0
VERTEX
  5
1B0
  8
1
  6
CONTINUOUS
 62
     7
 10
105.3855097176196
 20
227.7197153742822
 30
0.0
  0
VERTEX
  5
1B1
  8
1
  6
CONTINUOUS
 62
     7
 10
105.5116073530851
 20
227.68542608918699
 30
0.0
  0
VERTEX
  5
1B2
  8
1
  6
CONTINUOUS
 62
     7
 10
105.6124854614576
 20
227.65113680409189
 30
0.0
  0
VERTEX
  5
1B3
  8
1
  6
CONTINUOUS
 62
     7
 10
105.71336356982999
 20
227.60998966197761
 30
0.0
  0
VERTEX
  5
1B4
  8
1
  6
CONTINUOUS
 62
     7
 10
105.78902215110929
 20
227.57570037688239
 30
0.0
  0
VERTEX
  5
1B5
  8
1
  6
CONTINUOUS
 62
     7
 10
105.94033931366801
 20
227.50026394967301
 30
0.0
  0
VERTEX
  5
1B6
  8
1
  6
CONTINUOUS
 62
     7
 10
106.0790467126801
 20
227.4111118084256
 30
0.0
  0
VERTEX
  5
1B7
  8
1
  6
CONTINUOUS
 62
     7
 10
106.2177541116922
 20
227.30824395313999
 30
0.0
  0
VERTEX
  5
1B8
  8
1
  6
CONTINUOUS
 62
     7
 10
106.35646151070431
 20
227.1985182408354
 30
0.0
  0
VERTEX
  5
1B9
  8
1
  6
CONTINUOUS
 62
     7
 10
107.2391449589631
 20
226.4304382547032
 30
0.0
  0
VERTEX
  5
1BA
  8
1
  6
CONTINUOUS
 62
     7
 10
106.394290801344
 20
226.4304382547032
 30
0.0
  0
VERTEX
  5
1BB
  8
1
  6
CONTINUOUS
 62
     7
 10
105.71336356982999
 20
227.02021395834041
 30
0.0
  0
VERTEX
  5
1BC
  8
1
  6
CONTINUOUS
 62
     7
 10
105.5746561708179
 20
227.1367975276641
 30
0.0
  0
VERTEX
  5
1BD
  8
1
  6
CONTINUOUS
 62
     7
 10
105.4359487718058
 20
227.2465232399687
 30
0.0
  0
VERTEX
  5
1BE
  8
1
  6
CONTINUOUS
 62
     7
 10
105.32246089988681
 20
227.33567538121619
 30
0.0
  0
VERTEX
  5
1BF
  8
1
  6
CONTINUOUS
 62
     7
 10
105.22158279151439
 20
227.4111118084256
 30
0.0
  0
VERTEX
  5
1C0
  8
1
  6
CONTINUOUS
 62
     7
 10
105.1333144466885
 20
227.4728325215969
 30
0.0
  0
VERTEX
  5
1C1
  8
1
  6
CONTINUOUS
 62
     7
 10
105.0450461018626
 20
227.52769537774921
 30
0.0
  0
VERTEX
  5
1C2
  8
1
  6
CONTINUOUS
 62
     7
 10
104.9567777570367
 20
227.56884251986341
 30
0.0
  0
VERTEX
  5
1C3
  8
1
  6
CONTINUOUS
 62
     7
 10
104.88111917575741
 20
227.60313180495859
 30
0.0
  0
VERTEX
  5
1C4
  8
1
  6
CONTINUOUS
 62
     7
 10
104.72980201319869
 20
227.64427894707279
 30
0.0
  0
VERTEX
  5
1C5
  8
1
  6
CONTINUOUS
 62
     7
 10
104.5658750870936
 20
227.678568232168
 30
0.0
  0
VERTEX
  5
1C6
  8
1
  6
CONTINUOUS
 62
     7
 10
104.5028262693607
 20
227.68542608918699
 30
0.0
  0
VERTEX
  5
1C7
  8
1
  6
CONTINUOUS
 62
     7
 10
104.4145579245349
 20
227.68542608918699
 30
0.0
  0
VERTEX
  5
1C8
  8
1
  6
CONTINUOUS
 62
     7
 10
104.31367981616241
 20
227.69228394620609
 30
0.0
  0
VERTEX
  5
1C9
  8
1
  6
CONTINUOUS
 62
     7
 10
103.4057768408105
 20
227.69228394620609
 30
0.0
  0
VERTEX
  5
1CA
  8
1
  6
CONTINUOUS
 62
     7
 10
103.4057768408105
 20
226.4304382547032
 30
0.0
  0
SEQEND
  5
1CB
  8
1
  6
CONTINUOUS
 62
     7
  0
POLYLINE
  5
129
  8
1
  6
CONTINUOUS
 62
     7
 66
     1
 10
0.0
 20
0.0
 30
0.0
 70
     1
  0
VERTEX
  5
1CC
  8
1
  6
CONTINUOUS
 62
     7
 10
103.4057768408105
 20
228.0146032261008
 30
0.0
  0
VERTEX
  5
1CD
  8
1
  6
CONTINUOUS
 62
     7
 10
105.0828753925023
 20
228.0146032261008
 30
0.0
  0
VERTEX
  5
1CE
  8
1
  6
CONTINUOUS
 62
     7
 10
105.27202184570061
 20
228.02831894013889
 30
0.0
  0
VERTEX
  5
1CF
  8
1
  6
CONTINUOUS
 62
     7
 10
105.4485585353523
 20
228.042034654177
 30
0.0
  0
VERTEX
  5
1D0
  8
1
  6
CONTINUOUS
 62
     7
 10
105.5872659343645
 20
228.06946608225309
 30
0.0
  0
VERTEX
  5
1D1
  8
1
  6
CONTINUOUS
 62
     7
 10
105.71336356982999
 20
228.0968975103292
 30
0.0
  0
VERTEX
  5
1D2
  8
1
  6
CONTINUOUS
 62
     7
 10
105.81424167820251
 20
228.13804465244351
 30
0.0
  0
VERTEX
  5
1D3
  8
1
  6
CONTINUOUS
 62
     7
 10
105.9025100230284
 20
228.18604965157681
 30
0.0
  0
VERTEX
  5
1D4
  8
1
  6
CONTINUOUS
 62
     7
 10
105.9781686043077
 20
228.24091250772909
 30
0.0
  0
VERTEX
  5
1D5
  8
1
  6
CONTINUOUS
 62
     7
 10
106.0412174220404
 20
228.2957753638814
 30
0.0
  0
VERTEX
  5
1D6
  8
1
  6
CONTINUOUS
 62
     7
 10
106.0790467126801
 20
228.3574960770527
 30
0.0
  0
VERTEX
  5
1D7
  8
1
  6
CONTINUOUS
 62
     7
 10
106.1042662397732
 20
228.4260746472431
 30
0.0
  0
VERTEX
  5
1D8
  8
1
  6
CONTINUOUS
 62
     7
 10
106.1168760033198
 20
228.49465321743341
 30
0.0
  0
VERTEX
  5
1D9
  8
1
  6
CONTINUOUS
 62
     7
 10
106.1042662397732
 20
228.59066321569989
 30
0.0
  0
VERTEX
  5
1DA
  8
1
  6
CONTINUOUS
 62
     7
 10
106.053827185587
 20
228.6729574999284
 30
0.0
  0
VERTEX
  5
1DB
  8
1
  6
CONTINUOUS
 62
     7
 10
105.9655588407611
 20
228.75525178415691
 30
0.0
  0
VERTEX
  5
1DC
  8
1
  6
CONTINUOUS
 62
     7
 10
105.8520709688421
 20
228.82383035434719
 30
0.0
  0
VERTEX
  5
1DD
  8
1
  6
CONTINUOUS
 62
     7
 10
105.7007538062835
 20
228.87869321049951
 30
0.0
  0
VERTEX
  5
1DE
  8
1
  6
CONTINUOUS
 62
     7
 10
105.5116073530851
 20
228.9198403526137
 30
0.0
  0
VERTEX
  5
1DF
  8
1
  6
CONTINUOUS
 62
     7
 10
105.29724137279371
 20
228.9472717806899
 30
0.0
  0
VERTEX
  5
1E0
  8
1
  6
CONTINUOUS
 62
     7
 10
105.032436338316
 20
228.95412963770889
 30
0.0
  0
VERTEX
  5
1E1
  8
1
  6
CONTINUOUS
 62
     7
 10
103.4057768408105
 20
228.95412963770889
 30
0.0
  0
SEQEND
  5
1E2
  8
1
  6
CONTINUOUS
 62
     7
  0
POLYLINE
  5
12A
  8
1
  6
CONTINUOUS
 62
     7
 66
     1
 10
0.0
 20
0.0
 30
0.0
 70
     1
  0
VERTEX
  5
1E3
  8
1
  6
CONTINUOUS
 62
     7
 10
106.9617301609389
 20
226.4304382547032
 30
0.0
  0
VERTEX
  5
1E4
  8
1
  6
CONTINUOUS
 62
     7
 10
108.9288532742015
 20
229.2695910605847
 30
0.0
  0
VERTEX
  5
1E5
  8
1
  6
CONTINUOUS
 62
     7
 10
109.6728293234482
 20
229.2695910605847
 30
0.0
  0
VERTEX
  5
1E6
  8
1
  6
CONTINUOUS
 62
     7
 10
111.7912695992694
 20
226.4304382547032
 30
0.0
  0
VERTEX
  5
1E7
  8
1
  6
CONTINUOUS
 62
     7
 10
111.00946425938299
 20
226.4304382547032
 30
0.0
  0
VERTEX
  5
1E8
  8
1
  6
CONTINUOUS
 62
     7
 10
110.4168053726949
 20
227.28767038208289
 30
0.0
  0
VERTEX
  5
1E9
  8
1
  6
CONTINUOUS
 62
     7
 10
108.235316279141
 20
227.28767038208289
 30
0.0
  0
VERTEX
  5
1EA
  8
1
  6
CONTINUOUS
 62
     7
 10
107.6804866830926
 20
226.4304382547032
 30
0.0
  0
SEQEND
  5
1EB
  8
1
  6
CONTINUOUS
 62
     7
  0
POLYLINE
  5
12B
  8
1
  6
CONTINUOUS
 62
     7
 66
     1
 10
0.0
 20
0.0
 30
0.0
 70
     1
  0
VERTEX
  5
1EC
  8
1
  6
CONTINUOUS
 62
     7
 10
108.42446273233929
 20
227.59627394793961
 30
0.0
  0
VERTEX
  5
1ED
  8
1
  6
CONTINUOUS
 62
     7
 10
110.20243939240351
 20
227.59627394793961
 30
0.0
  0
VERTEX
  5
1EE
  8
1
  6
CONTINUOUS
 62
     7
 10
109.66021955990171
 20
228.38492750512879
 30
0.0
  0
VERTEX
  5
1EF
  8
1
  6
CONTINUOUS
 62
     7
 10
109.5467316879827
 20
228.55637393060479
 30
0.0
  0
VERTEX
  5
1F0
  8
1
  6
CONTINUOUS
 62
     7
 10
109.4458535796102
 20
228.70724678502361
 30
0.0
  0
VERTEX
  5
1F1
  8
1
  6
CONTINUOUS
 62
     7
 10
109.3575852347843
 20
228.85126178242339
 30
0.0
  0
VERTEX
  5
1F2
  8
1
  6
CONTINUOUS
 62
     7
 10
109.2945364170516
 20
228.97470320876599
 30
0.0
  0
VERTEX
  5
1F3
  8
1
  6
CONTINUOUS
 62
     7
 10
109.1558290180395
 20
228.70038892800449
 30
0.0
  0
VERTEX
  5
1F4
  8
1
  6
CONTINUOUS
 62
     7
 10
108.99190209193431
 20
228.4260746472431
 30
0.0
  0
SEQEND
  5
1F5
  8
1
  6
CONTINUOUS
 62
     7
  0
POLYLINE
  5
12C
  8
1
  6
CONTINUOUS
 62
     7
 66
     1
 10
0.0
 20
0.0
 30
0.0
 70
     1
  0
VERTEX
  5
1F6
  8
1
  6
CONTINUOUS
 62
     7
 10
111.9678062889212
 20
226.4304382547032
 30
0.0
  0
VERTEX
  5
1F7
  8
1
  6
CONTINUOUS
 62
     7
 10
111.9678062889212
 20
229.2695910605847
 30
0.0
  0
VERTEX
  5
1F8
  8
1
  6
CONTINUOUS
 62
     7
 10
114.0231977470096
 20
229.2695910605847
 30
0.0
  0
VERTEX
  5
1F9
  8
1
  6
CONTINUOUS
 62
     7
 10
114.2753930179407
 20
229.25587534654659
 30
0.0
  0
VERTEX
  5
1FA
  8
1
  6
CONTINUOUS
 62
     7
 10
114.48975899823211
 20
229.2490174895276
 30
0.0
  0
VERTEX
  5
1FB
  8
1
  6
CONTINUOUS
 62
     7
 10
114.6662956878839
 20
229.22844391847039
 30
0.0
  0
VERTEX
  5
1FC
  8
1
  6
CONTINUOUS
 62
     7
 10
114.88066166817531
 20
229.19415463337521
 30
0.0
  0
VERTEX
  5
1FD
  8
1
  6
CONTINUOUS
 62
     7
 10
115.0698081213736
 20
229.14614963424199
 30
0.0
  0
VERTEX
  5
1FE
  8
1
  6
CONTINUOUS
 62
     7
 10
115.258954574572
 20
229.09128677808971
 30
0.0
  0
VERTEX
  5
1FF
  8
1
  6
CONTINUOUS
 62
     7
 10
115.42288150067721
 20
229.02270820789931
 30
0.0
  0
VERTEX
  5
200
  8
1
  6
CONTINUOUS
 62
     7
 10
115.6120279538755
 20
228.9266982096328
 30
0.0
  0
VERTEX
  5
201
  8
1
  6
CONTINUOUS
 62
     7
 10
115.7759548799807
 20
228.81011464030919
 30
0.0
  0
VERTEX
  5
202
  8
1
  6
CONTINUOUS
 62
     7
 10
115.91466227899279
 20
228.6798153569475
 30
0.0
  0
VERTEX
  5
203
  8
1
  6
CONTINUOUS
 62
     7
 10
116.0281501509118
 20
228.54265821656671
 30
0.0
  0
VERTEX
  5
204
  8
1
  6
CONTINUOUS
 62
     7
 10
116.1164184957377
 20
228.38492750512879
 30
0.0
  0
VERTEX
  5
205
  8
1
  6
CONTINUOUS
 62
     7
 10
116.1794673134705
 20
228.22033893667191
 30
0.0
  0
VERTEX
  5
206
  8
1
  6
CONTINUOUS
 62
     7
 10
116.2172966041101
 20
228.04889251119599
 30
0.0
  0
VERTEX
  5
207
  8
1
  6
CONTINUOUS
 62
     7
 10
116.2299063676567
 20
227.86373037168201
 30
0.0
  0
VERTEX
  5
208
  8
1
  6
CONTINUOUS
 62
     7
 10
116.2172966041101
 20
227.70599966024409
 30
0.0
  0
VERTEX
  5
209
  8
1
  6
CONTINUOUS
 62
     7
 10
116.192077077017
 20
227.5619846628444
 30
0.0
  0
VERTEX
  5
20A
  8
1
  6
CONTINUOUS
 62
     7
 10
116.1542477863774
 20
227.41796966544459
 30
0.0
  0
VERTEX
  5
20B
  8
1
  6
CONTINUOUS
 62
     7
 10
116.0911989686446
 20
227.29452823910191
 30
0.0
  0
VERTEX
  5
20C
  8
1
  6
CONTINUOUS
 62
     7
 10
116.01554038736531
 20
227.17108681275931
 30
0.0
  0
VERTEX
  5
20D
  8
1
  6
CONTINUOUS
 62
     7
 10
115.93988180608591
 20
227.0613611004546
 30
0.0
  0
VERTEX
  5
20E
  8
1
  6
CONTINUOUS
 62
     7
 10
115.83900369771349
 20
226.96535110218821
 30
0.0
  0
VERTEX
  5
20F
  8
1
  6
CONTINUOUS
 62
     7
 10
115.738125589341
 20
226.8761989609406
 30
0.0
  0
VERTEX
  5
210
  8
1
  6
CONTINUOUS
 62
     7
 10
115.6372474809686
 20
226.80076253373119
 30
0.0
  0
VERTEX
  5
211
  8
1
  6
CONTINUOUS
 62
     7
 10
115.39766197358411
 20
226.67046325036949
 30
0.0
  0
VERTEX
  5
212
  8
1
  6
CONTINUOUS
 62
     7
 10
115.27156433811849
 20
226.62245825123631
 30
0.0
  0
VERTEX
  5
213
  8
1
  6
CONTINUOUS
 62
     7
 10
115.1328569391064
 20
226.57445325210301
 30
0.0
  0
VERTEX
  5
214
  8
1
  6
CONTINUOUS
 62
     7
 10
114.9941495400943
 20
226.5401639670078
 30
0.0
  0
VERTEX
  5
215
  8
1
  6
CONTINUOUS
 62
     7
 10
114.83022261398909
 20
226.50587468191259
 30
0.0
  0
VERTEX
  5
216
  8
1
  6
CONTINUOUS
 62
     7
 10
114.6536859243373
 20
226.4784432538365
 30
0.0
  0
VERTEX
  5
217
  8
1
  6
CONTINUOUS
 62
     7
 10
114.46453947113901
 20
226.45786968277929
 30
0.0
  0
VERTEX
  5
218
  8
1
  6
CONTINUOUS
 62
     7
 10
114.2753930179407
 20
226.44415396874129
 30
0.0
  0
VERTEX
  5
219
  8
1
  6
CONTINUOUS
 62
     7
 10
114.0610270376493
 20
226.4304382547032
 30
0.0
  0
SEQEND
  5
21A
  8
1
  6
CONTINUOUS
 62
     7
  0
POLYLINE
  5
12D
  8
1
  6
CONTINUOUS
 62
     7
 66
     1
 10
0.0
 20
0.0
 30
0.0
 70
     1
  0
VERTEX
  5
21B
  8
1
  6
CONTINUOUS
 62
     7
 10
112.6487335204351
 20
226.766473248636
 30
0.0
  0
VERTEX
  5
21C
  8
1
  6
CONTINUOUS
 62
     7
 10
113.9853684563699
 20
226.766473248636
 30
0.0
  0
VERTEX
  5
21D
  8
1
  6
CONTINUOUS
 62
     7
 10
114.1997344366614
 20
226.78018896267409
 30
0.0
  0
VERTEX
  5
21E
  8
1
  6
CONTINUOUS
 62
     7
 10
114.38888088985971
 20
226.7939046767122
 30
0.0
  0
VERTEX
  5
21F
  8
1
  6
CONTINUOUS
 62
     7
 10
114.5528078159649
 20
226.8213361047884
 30
0.0
  0
VERTEX
  5
220
  8
1
  6
CONTINUOUS
 62
     7
 10
114.691515214977
 20
226.8487675328644
 30
0.0
  0
VERTEX
  5
221
  8
1
  6
CONTINUOUS
 62
     7
 10
114.918490958815
 20
226.91734610305491
 30
0.0
  0
VERTEX
  5
222
  8
1
  6
CONTINUOUS
 62
     7
 10
115.00675930364091
 20
226.96535110218821
 30
0.0
  0
VERTEX
  5
223
  8
1
  6
CONTINUOUS
 62
     7
 10
115.1202471755599
 20
227.04078752939759
 30
0.0
  0
VERTEX
  5
224
  8
1
  6
CONTINUOUS
 62
     7
 10
115.2211252839323
 20
227.12308181362599
 30
0.0
  0
VERTEX
  5
225
  8
1
  6
CONTINUOUS
 62
     7
 10
115.3093936287582
 20
227.2190918118925
 30
0.0
  0
VERTEX
  5
226
  8
1
  6
CONTINUOUS
 62
     7
 10
115.3850522100375
 20
227.32195966717811
 30
0.0
  0
VERTEX
  5
227
  8
1
  6
CONTINUOUS
 62
     7
 10
115.44810102777031
 20
227.44540109352079
 30
0.0
  0
VERTEX
  5
228
  8
1
  6
CONTINUOUS
 62
     7
 10
115.4859303184099
 20
227.57570037688239
 30
0.0
  0
VERTEX
  5
229
  8
1
  6
CONTINUOUS
 62
     7
 10
115.5111498455031
 20
227.71285751726319
 30
0.0
  0
VERTEX
  5
22A
  8
1
  6
CONTINUOUS
 62
     7
 10
115.52375960904961
 20
227.870588228701
 30
0.0
  0
VERTEX
  5
22B
  8
1
  6
CONTINUOUS
 62
     7
 10
115.5111498455031
 20
228.0831817962912
 30
0.0
  0
VERTEX
  5
22C
  8
1
  6
CONTINUOUS
 62
     7
 10
115.4607107913169
 20
228.26148607878619
 30
0.0
  0
VERTEX
  5
22D
  8
1
  6
CONTINUOUS
 62
     7
 10
115.37244244649099
 20
228.419216790224
 30
0.0
  0
VERTEX
  5
22E
  8
1
  6
CONTINUOUS
 62
     7
 10
115.258954574572
 20
228.55637393060479
 30
0.0
  0
VERTEX
  5
22F
  8
1
  6
CONTINUOUS
 62
     7
 10
115.1202471755599
 20
228.66609964290939
 30
0.0
  0
VERTEX
  5
230
  8
1
  6
CONTINUOUS
 62
     7
 10
114.9689300130012
 20
228.75525178415691
 30
0.0
  0
VERTEX
  5
231
  8
1
  6
CONTINUOUS
 62
     7
 10
114.7923933233494
 20
228.82383035434719
 30
0.0
  0
VERTEX
  5
232
  8
1
  6
CONTINUOUS
 62
     7
 10
114.6158566336977
 20
228.87183535348049
 30
0.0
  0
VERTEX
  5
233
  8
1
  6
CONTINUOUS
 62
     7
 10
114.4519297075925
 20
228.89926678155661
 30
0.0
  0
VERTEX
  5
234
  8
1
  6
CONTINUOUS
 62
     7
 10
114.2501734908476
 20
228.9198403526137
 30
0.0
  0
VERTEX
  5
235
  8
1
  6
CONTINUOUS
 62
     7
 10
114.0105879834631
 20
228.9266982096328
 30
0.0
  0
VERTEX
  5
236
  8
1
  6
CONTINUOUS
 62
     7
 10
113.7331731854388
 20
228.93355606665179
 30
0.0
  0
VERTEX
  5
237
  8
1
  6
CONTINUOUS
 62
     7
 10
112.6487335204351
 20
228.93355606665179
 30
0.0
  0
SEQEND
  5
238
  8
1
  6
CONTINUOUS
 62
     7
  0
POLYLINE
  5
12E
  8
1
  6
CONTINUOUS
 62
     7
 66
     1
 10
0.0
 20
0.0
 30
0.0
 70
     1
  0
VERTEX
  5
239
  8
1
  6
CONTINUOUS
 62
     7
 10
116.8099554907982
 20
226.4304382547032
 30
0.0
  0
VERTEX
  5
23A
  8
1
  6
CONTINUOUS
 62
     7
 10
116.8099554907982
 20
229.2695910605847
 30
0.0
  0
VERTEX
  5
23B
  8
1
  6
CONTINUOUS
 62
     7
 10
120.2902502296473
 20
229.2695910605847
 30
0.0
  0
VERTEX
  5
23C
  8
1
  6
CONTINUOUS
 62
     7
 10
120.2902502296473
 20
228.93355606665179
 30
0.0
  0
VERTEX
  5
23D
  8
1
  6
CONTINUOUS
 62
     7
 10
117.49088272231219
 20
228.93355606665179
 30
0.0
  0
VERTEX
  5
23E
  8
1
  6
CONTINUOUS
 62
     7
 10
117.49088272231219
 20
228.05575036821509
 30
0.0
  0
VERTEX
  5
23F
  8
1
  6
CONTINUOUS
 62
     7
 10
119.9119573232507
 20
228.05575036821509
 30
0.0
  0
VERTEX
  5
240
  8
1
  6
CONTINUOUS
 62
     7
 10
119.9119573232507
 20
227.7197153742822
 30
0.0
  0
VERTEX
  5
241
  8
1
  6
CONTINUOUS
 62
     7
 10
117.49088272231219
 20
227.7197153742822
 30
0.0
  0
VERTEX
  5
242
  8
1
  6
CONTINUOUS
 62
     7
 10
117.49088272231219
 20
226.4304382547032
 30
0.0
  0
SEQEND
  5
243
  8
1
  6
CONTINUOUS
 62
     7
  0
POLYLINE
  5
12F
  8
1
  6
CONTINUOUS
 62
     7
 66
     1
 10
0.0
 20
0.0
 30
0.0
 70
     1
  0
VERTEX
  5
244
  8
1
  6
CONTINUOUS
 62
     7
 10
120.81986029860261
 20
226.4304382547032
 30
0.0
  0
VERTEX
  5
245
  8
1
  6
CONTINUOUS
 62
     7
 10
120.81986029860261
 20
229.2695910605847
 30
0.0
  0
VERTEX
  5
246
  8
1
  6
CONTINUOUS
 62
     7
 10
121.5007875301166
 20
229.2695910605847
 30
0.0
  0
VERTEX
  5
247
  8
1
  6
CONTINUOUS
 62
     7
 10
121.5007875301166
 20
226.766473248636
 30
0.0
  0
VERTEX
  5
248
  8
1
  6
CONTINUOUS
 62
     7
 10
124.04795976652061
 20
226.766473248636
 30
0.0
  0
VERTEX
  5
249
  8
1
  6
CONTINUOUS
 62
     7
 10
124.04795976652061
 20
226.4304382547032
 30
0.0
  0
SEQEND
  5
24A
  8
1
  6
CONTINUOUS
 62
     7
  0
POLYLINE
  5
130
  8
1
  6
CONTINUOUS
 62
     7
 66
     1
 10
0.0
 20
0.0
 30
0.0
 70
     1
  0
VERTEX
  5
24B
  8
1
  6
CONTINUOUS
 62
     7
 10
124.5775698354759
 20
226.4304382547032
 30
0.0
  0
VERTEX
  5
24C
  8
1
  6
CONTINUOUS
 62
     7
 10
124.5775698354759
 20
229.2695910605847
 30
0.0
  0
VERTEX
  5
24D
  8
1
  6
CONTINUOUS
 62
     7
 10
128.2974500817096
 20
229.2695910605847
 30
0.0
  0
VERTEX
  5
24E
  8
1
  6
CONTINUOUS
 62
     7
 10
128.2974500817096
 20
228.93355606665179
 30
0.0
  0
VERTEX
  5
24F
  8
1
  6
CONTINUOUS
 62
     7
 10
125.2584970669899
 20
228.93355606665179
 30
0.0
  0
VERTEX
  5
250
  8
1
  6
CONTINUOUS
 62
     7
 10
125.2584970669899
 20
228.06946608225309
 30
0.0
  0
VERTEX
  5
251
  8
1
  6
CONTINUOUS
 62
     7
 10
128.10830362851129
 20
228.06946608225309
 30
0.0
  0
VERTEX
  5
252
  8
1
  6
CONTINUOUS
 62
     7
 10
128.10830362851129
 20
227.73343108832029
 30
0.0
  0
VERTEX
  5
253
  8
1
  6
CONTINUOUS
 62
     7
 10
125.2584970669899
 20
227.73343108832029
 30
0.0
  0
VERTEX
  5
254
  8
1
  6
CONTINUOUS
 62
     7
 10
125.2584970669899
 20
226.766473248636
 30
0.0
  0
VERTEX
  5
255
  8
1
  6
CONTINUOUS
 62
     7
 10
128.4109379536286
 20
226.766473248636
 30
0.0
  0
VERTEX
  5
256
  8
1
  6
CONTINUOUS
 62
     7
 10
128.4109379536286
 20
226.4304382547032
 30
0.0
  0
SEQEND
  5
257
  8
1
  6
CONTINUOUS
 62
     7
  0
POLYLINE
  5
131
  8
1
  6
CONTINUOUS
 62
     7
 66
     1
 10
0.0
 20
0.0
 30
0.0
 70
     1
  0
VERTEX
  5
258
  8
1
  6
CONTINUOUS
 62
     7
 10
137.52398558599381
 20
229.31156935573259
 30
0.0
  0
VERTEX
  5
259
  8
1
  6
CONTINUOUS
 62
     7
 10
137.52398558599381
 20
230.7859443557326
 30
0.0
  0
VERTEX
  5
25A
  8
1
  6
CONTINUOUS
 62
     7
 10
138.1703918359938
 20
230.7859443557326
 30
0.0
  0
VERTEX
  5
25B
  8
1
  6
CONTINUOUS
 62
     7
 10
138.2174230859938
 20
230.7848506057326
 30
0.0
  0
VERTEX
  5
25C
  8
1
  6
CONTINUOUS
 62
     7
 10
138.2622668359937
 20
230.78375685573249
 30
0.0
  0
VERTEX
  5
25D
  8
1
  6
CONTINUOUS
 62
     7
 10
138.3038293359937
 20
230.78047560573259
 30
0.0
  0
VERTEX
  5
25E
  8
1
  6
CONTINUOUS
 62
     7
 10
138.34211058599371
 20
230.77610060573261
 30
0.0
  0
VERTEX
  5
25F
  8
1
  6
CONTINUOUS
 62
     7
 10
138.37820433599379
 20
230.7706318557326
 30
0.0
  0
VERTEX
  5
260
  8
1
  6
CONTINUOUS
 62
     7
 10
138.4099230859938
 20
230.76297560573261
 30
0.0
  0
VERTEX
  5
261
  8
1
  6
CONTINUOUS
 62
     7
 10
138.4405480859937
 20
230.75531935573261
 30
0.0
  0
VERTEX
  5
262
  8
1
  6
CONTINUOUS
 62
     7
 10
138.46679808599379
 20
230.74656935573259
 30
0.0
  0
VERTEX
  5
263
  8
1
  6
CONTINUOUS
 62
     7
 10
138.4919543359938
 20
230.73563185573261
 30
0.0
  0
VERTEX
  5
264
  8
1
  6
CONTINUOUS
 62
     7
 10
138.5149230859937
 20
230.7225068557326
 30
0.0
  0
VERTEX
  5
265
  8
1
  6
CONTINUOUS
 62
     7
 10
138.5378918359938
 20
230.70828810573261
 30
0.0
  0
VERTEX
  5
266
  8
1
  6
CONTINUOUS
 62
     7
 10
138.5586730859938
 20
230.69078810573259
 30
0.0
  0
VERTEX
  5
267
  8
1
  6
CONTINUOUS
 62
     7
 10
138.57836058599369
 20
230.67328810573261
 30
0.0
  0
VERTEX
  5
268
  8
1
  6
CONTINUOUS
 62
     7
 10
138.59586058599379
 20
230.6525068557327
 30
0.0
  0
VERTEX
  5
269
  8
1
  6
CONTINUOUS
 62
     7
 10
138.61336058599369
 20
230.63063185573259
 30
0.0
  0
VERTEX
  5
26A
  8
1
  6
CONTINUOUS
 62
     7
 10
138.62976683599379
 20
230.60547560573261
 30
0.0
  0
VERTEX
  5
26B
  8
1
  6
CONTINUOUS
 62
     7
 10
138.6439855859937
 20
230.5803193557326
 30
0.0
  0
VERTEX
  5
26C
  8
1
  6
CONTINUOUS
 62
     7
 10
138.65601683599371
 20
230.55406935573259
 30
0.0
  0
VERTEX
  5
26D
  8
1
  6
CONTINUOUS
 62
     7
 10
138.66586058599381
 20
230.52781935573259
 30
0.0
  0
VERTEX
  5
26E
  8
1
  6
CONTINUOUS
 62
     7
 10
138.67461058599369
 20
230.50047560573259
 30
0.0
  0
VERTEX
  5
26F
  8
1
  6
CONTINUOUS
 62
     7
 10
138.68117308599381
 20
230.47203810573259
 30
0.0
  0
VERTEX
  5
270
  8
1
  6
CONTINUOUS
 62
     7
 10
138.6866418359937
 20
230.4436006057326
 30
0.0
  0
VERTEX
  5
271
  8
1
  6
CONTINUOUS
 62
     7
 10
138.68882933599369
 20
230.41406935573261
 30
0.0
  0
VERTEX
  5
272
  8
1
  6
CONTINUOUS
 62
     7
 10
138.68992308599371
 20
230.38344435573259
 30
0.0
  0
VERTEX
  5
273
  8
1
  6
CONTINUOUS
 62
     7
 10
138.68882933599369
 20
230.34516310573261
 30
0.0
  0
VERTEX
  5
274
  8
1
  6
CONTINUOUS
 62
     7
 10
138.68336058599371
 20
230.30906935573259
 30
0.0
  0
VERTEX
  5
275
  8
1
  6
CONTINUOUS
 62
     7
 10
138.67570433599369
 20
230.2729756057326
 30
0.0
  0
VERTEX
  5
276
  8
1
  6
CONTINUOUS
 62
     7
 10
138.6647668359937
 20
230.2390693557326
 30
0.0
  0
VERTEX
  5
277
  8
1
  6
CONTINUOUS
 62
     7
 10
138.65054808599371
 20
230.20735060573259
 30
0.0
  0
VERTEX
  5
278
  8
1
  6
CONTINUOUS
 62
     7
 10
138.63304808599369
 20
230.1767256057326
 30
0.0
  0
VERTEX
  5
279
  8
1
  6
CONTINUOUS
 62
     7
 10
138.61336058599369
 20
230.14719435573261
 30
0.0
  0
VERTEX
  5
27A
  8
1
  6
CONTINUOUS
 62
     7
 10
138.58929808599379
 20
230.11985060573261
 30
0.0
  0
VERTEX
  5
27B
  8
1
  6
CONTINUOUS
 62
     7
 10
138.56304808599381
 20
230.0936006057326
 30
0.0
  0
VERTEX
  5
27C
  8
1
  6
CONTINUOUS
 62
     7
 10
138.5324230859938
 20
230.07063185573259
 30
0.0
  0
VERTEX
  5
27D
  8
1
  6
CONTINUOUS
 62
     7
 10
138.49851683599371
 20
230.04985060573259
 30
0.0
  0
VERTEX
  5
27E
  8
1
  6
CONTINUOUS
 62
     7
 10
138.4613293359937
 20
230.03125685573261
 30
0.0
  0
VERTEX
  5
27F
  8
1
  6
CONTINUOUS
 62
     7
 10
138.42086058599369
 20
230.01594435573259
 30
0.0
  0
VERTEX
  5
280
  8
1
  6
CONTINUOUS
 62
     7
 10
138.37711058599371
 20
230.00281935573261
 30
0.0
  0
VERTEX
  5
281
  8
1
  6
CONTINUOUS
 62
     7
 10
138.33007933599379
 20
229.9918818557326
 30
0.0
  0
VERTEX
  5
282
  8
1
  6
CONTINUOUS
 62
     7
 10
138.2786730859938
 20
229.98313185573261
 30
0.0
  0
VERTEX
  5
283
  8
1
  6
CONTINUOUS
 62
     7
 10
138.2972668359937
 20
229.97328810573259
 30
0.0
  0
VERTEX
  5
284
  8
1
  6
CONTINUOUS
 62
     7
 10
138.31476683599379
 20
229.9645381057326
 30
0.0
  0
VERTEX
  5
285
  8
1
  6
CONTINUOUS
 62
     7
 10
138.33117308599381
 20
229.95469435573261
 30
0.0
  0
VERTEX
  5
286
  8
1
  6
CONTINUOUS
 62
     7
 10
138.3464855859938
 20
229.94594435573259
 30
0.0
  0
VERTEX
  5
287
  8
1
  6
CONTINUOUS
 62
     7
 10
138.36070433599369
 20
229.9371943557326
 30
0.0
  0
VERTEX
  5
288
  8
1
  6
CONTINUOUS
 62
     7
 10
138.37273558599369
 20
229.92735060573261
 30
0.0
  0
VERTEX
  5
289
  8
1
  6
CONTINUOUS
 62
     7
 10
138.3847668359937
 20
229.91860060573259
 30
0.0
  0
VERTEX
  5
28A
  8
1
  6
CONTINUOUS
 62
     7
 10
138.39570433599371
 20
229.9098506057326
 30
0.0
  0
VERTEX
  5
28B
  8
1
  6
CONTINUOUS
 62
     7
 10
138.43726683599371
 20
229.8682881057326
 30
0.0
  0
VERTEX
  5
28C
  8
1
  6
CONTINUOUS
 62
     7
 10
138.45695433599369
 20
229.84531935573261
 30
0.0
  0
VERTEX
  5
28D
  8
1
  6
CONTINUOUS
 62
     7
 10
138.47773558599371
 20
229.8212568557326
 30
0.0
  0
VERTEX
  5
28E
  8
1
  6
CONTINUOUS
 62
     7
 10
138.49742308599369
 20
229.79610060573259
 30
0.0
  0
VERTEX
  5
28F
  8
1
  6
CONTINUOUS
 62
     7
 10
138.51711058599381
 20
229.76985060573259
 30
0.0
  0
VERTEX
  5
290
  8
1
  6
CONTINUOUS
 62
     7
 10
138.53679808599381
 20
229.74250685573259
 30
0.0
  0
VERTEX
  5
291
  8
1
  6
CONTINUOUS
 62
     7
 10
138.5553918359937
 20
229.71297560573259
 30
0.0
  0
VERTEX
  5
292
  8
1
  6
CONTINUOUS
 62
     7
 10
138.8091418359937
 20
229.31156935573259
 30
0.0
  0
VERTEX
  5
293
  8
1
  6
CONTINUOUS
 62
     7
 10
138.5663293359938
 20
229.31156935573259
 30
0.0
  0
VERTEX
  5
294
  8
1
  6
CONTINUOUS
 62
     7
 10
138.3738293359938
 20
229.61891310573259
 30
0.0
  0
VERTEX
  5
295
  8
1
  6
CONTINUOUS
 62
     7
 10
138.35304808599381
 20
229.6506318557326
 30
0.0
  0
VERTEX
  5
296
  8
1
  6
CONTINUOUS
 62
     7
 10
138.33336058599369
 20
229.68125685573261
 30
0.0
  0
VERTEX
  5
297
  8
1
  6
CONTINUOUS
 62
     7
 10
138.3136730859938
 20
229.70969435573269
 30
0.0
  0
VERTEX
  5
298
  8
1
  6
CONTINUOUS
 62
     7
 10
138.2961730859937
 20
229.7359443557327
 30
0.0
  0
VERTEX
  5
299
  8
1
  6
CONTINUOUS
 62
     7
 10
138.27976683599371
 20
229.7600068557326
 30
0.0
  0
VERTEX
  5
29A
  8
1
  6
CONTINUOUS
 62
     7
 10
138.26336058599369
 20
229.7829756057327
 30
0.0
  0
VERTEX
  5
29B
  8
1
  6
CONTINUOUS
 62
     7
 10
138.2480480859937
 20
229.80375685573259
 30
0.0
  0
VERTEX
  5
29C
  8
1
  6
CONTINUOUS
 62
     7
 10
138.2338293359937
 20
229.82235060573259
 30
0.0
  0
VERTEX
  5
29D
  8
1
  6
CONTINUOUS
 62
     7
 10
138.2207043359937
 20
229.83875685573261
 30
0.0
  0
VERTEX
  5
29E
  8
1
  6
CONTINUOUS
 62
     7
 10
138.20757933599381
 20
229.85406935573261
 30
0.0
  0
VERTEX
  5
29F
  8
1
  6
CONTINUOUS
 62
     7
 10
138.19445433599381
 20
229.8682881057326
 30
0.0
  0
VERTEX
  5
2A0
  8
1
  6
CONTINUOUS
 62
     7
 10
138.18242308599369
 20
229.88141310573261
 30
0.0
  0
VERTEX
  5
2A1
  8
1
  6
CONTINUOUS
 62
     7
 10
138.1703918359938
 20
229.89344435573261
 30
0.0
  0
VERTEX
  5
2A2
  8
1
  6
CONTINUOUS
 62
     7
 10
138.15836058599379
 20
229.90328810573271
 30
0.0
  0
VERTEX
  5
2A3
  8
1
  6
CONTINUOUS
 62
     7
 10
138.14742308599369
 20
229.91313185573259
 30
0.0
  0
VERTEX
  5
2A4
  8
1
  6
CONTINUOUS
 62
     7
 10
138.13648558599371
 20
229.92078810573261
 30
0.0
  0
VERTEX
  5
2A5
  8
1
  6
CONTINUOUS
 62
     7
 10
138.1146105859938
 20
229.93391310573259
 30
0.0
  0
VERTEX
  5
2A6
  8
1
  6
CONTINUOUS
 62
     7
 10
138.09273558599381
 20
229.9448506057326
 30
0.0
  0
VERTEX
  5
2A7
  8
1
  6
CONTINUOUS
 62
     7
 10
138.0697668359937
 20
229.95250685573259
 30
0.0
  0
VERTEX
  5
2A8
  8
1
  6
CONTINUOUS
 62
     7
 10
138.04789183599379
 20
229.96016310573259
 30
0.0
  0
VERTEX
  5
2A9
  8
1
  6
CONTINUOUS
 62
     7
 10
138.03914183599369
 20
229.96125685573259
 30
0.0
  0
VERTEX
  5
2AA
  8
1
  6
CONTINUOUS
 62
     7
 10
138.02929808599379
 20
229.96235060573261
 30
0.0
  0
VERTEX
  5
2AB
  8
1
  6
CONTINUOUS
 62
     7
 10
138.01726683599381
 20
229.96344435573261
 30
0.0
  0
VERTEX
  5
2AC
  8
1
  6
CONTINUOUS
 62
     7
 10
137.99101683599369
 20
229.9656318557326
 30
0.0
  0
VERTEX
  5
2AD
  8
1
  6
CONTINUOUS
 62
     7
 10
137.9757043359937
 20
229.96672560573259
 30
0.0
  0
VERTEX
  5
2AE
  8
1
  6
CONTINUOUS
 62
     7
 10
137.71648558599381
 20
229.96672560573259
 30
0.0
  0
VERTEX
  5
2AF
  8
1
  6
CONTINUOUS
 62
     7
 10
137.71648558599381
 20
229.31156935573259
 30
0.0
  0
SEQEND
  5
2B0
  8
1
  6
CONTINUOUS
 62
     7
  0
POLYLINE
  5
132
  8
1
  6
CONTINUOUS
 62
     7
 66
     1
 10
0.0
 20
0.0
 30
0.0
 70
     1
  0
VERTEX
  5
2B1
  8
1
  6
CONTINUOUS
 62
     7
 10
137.71648558599381
 20
230.1351631057326
 30
0.0
  0
VERTEX
  5
2B2
  8
1
  6
CONTINUOUS
 62
     7
 10
138.16382933599371
 20
230.1351631057326
 30
0.0
  0
VERTEX
  5
2B3
  8
1
  6
CONTINUOUS
 62
     7
 10
138.19445433599381
 20
230.13735060573259
 30
0.0
  0
VERTEX
  5
2B4
  8
1
  6
CONTINUOUS
 62
     7
 10
138.22289183599381
 20
230.13844435573259
 30
0.0
  0
VERTEX
  5
2B5
  8
1
  6
CONTINUOUS
 62
     7
 10
138.24914183599381
 20
230.1417256057326
 30
0.0
  0
VERTEX
  5
2B6
  8
1
  6
CONTINUOUS
 62
     7
 10
138.27429808599371
 20
230.1461006057325
 30
0.0
  0
VERTEX
  5
2B7
  8
1
  6
CONTINUOUS
 62
     7
 10
138.2972668359937
 20
230.15047560573259
 30
0.0
  0
VERTEX
  5
2B8
  8
1
  6
CONTINUOUS
 62
     7
 10
138.31914183599369
 20
230.15594435573269
 30
0.0
  0
VERTEX
  5
2B9
  8
1
  6
CONTINUOUS
 62
     7
 10
138.33882933599369
 20
230.1625068557326
 30
0.0
  0
VERTEX
  5
2BA
  8
1
  6
CONTINUOUS
 62
     7
 10
138.35632933599371
 20
230.1701631057326
 30
0.0
  0
VERTEX
  5
2BB
  8
1
  6
CONTINUOUS
 62
     7
 10
138.3738293359938
 20
230.17891310573259
 30
0.0
  0
VERTEX
  5
2BC
  8
1
  6
CONTINUOUS
 62
     7
 10
138.3891418359938
 20
230.18766310573261
 30
0.0
  0
VERTEX
  5
2BD
  8
1
  6
CONTINUOUS
 62
     7
 10
138.40445433599379
 20
230.19860060573259
 30
0.0
  0
VERTEX
  5
2BE
  8
1
  6
CONTINUOUS
 62
     7
 10
138.43070433599371
 20
230.22266310573261
 30
0.0
  0
VERTEX
  5
2BF
  8
1
  6
CONTINUOUS
 62
     7
 10
138.45257933599379
 20
230.2511006057326
 30
0.0
  0
VERTEX
  5
2C0
  8
1
  6
CONTINUOUS
 62
     7
 10
138.4613293359937
 20
230.2664131057326
 30
0.0
  0
VERTEX
  5
2C1
  8
1
  6
CONTINUOUS
 62
     7
 10
138.46898558599369
 20
230.28281935573261
 30
0.0
  0
VERTEX
  5
2C2
  8
1
  6
CONTINUOUS
 62
     7
 10
138.47554808599381
 20
230.29813185573261
 30
0.0
  0
VERTEX
  5
2C3
  8
1
  6
CONTINUOUS
 62
     7
 10
138.48101683599381
 20
230.31453810573259
 30
0.0
  0
VERTEX
  5
2C4
  8
1
  6
CONTINUOUS
 62
     7
 10
138.48539183599371
 20
230.33094435573261
 30
0.0
  0
VERTEX
  5
2C5
  8
1
  6
CONTINUOUS
 62
     7
 10
138.4886730859937
 20
230.3484443557326
 30
0.0
  0
VERTEX
  5
2C6
  8
1
  6
CONTINUOUS
 62
     7
 10
138.49086058599369
 20
230.38344435573259
 30
0.0
  0
VERTEX
  5
2C7
  8
1
  6
CONTINUOUS
 62
     7
 10
138.48976683599381
 20
230.4086006057326
 30
0.0
  0
VERTEX
  5
2C8
  8
1
  6
CONTINUOUS
 62
     7
 10
138.48648558599371
 20
230.43375685573261
 30
0.0
  0
VERTEX
  5
2C9
  8
1
  6
CONTINUOUS
 62
     7
 10
138.4799230859937
 20
230.4567256057326
 30
0.0
  0
VERTEX
  5
2CA
  8
1
  6
CONTINUOUS
 62
     7
 10
138.47226683599371
 20
230.47860060573259
 30
0.0
  0
VERTEX
  5
2CB
  8
1
  6
CONTINUOUS
 62
     7
 10
138.4613293359937
 20
230.49938185573259
 30
0.0
  0
VERTEX
  5
2CC
  8
1
  6
CONTINUOUS
 62
     7
 10
138.44820433599369
 20
230.5190693557326
 30
0.0
  0
VERTEX
  5
2CD
  8
1
  6
CONTINUOUS
 62
     7
 10
138.4328918359937
 20
230.53766310573261
 30
0.0
  0
VERTEX
  5
2CE
  8
1
  6
CONTINUOUS
 62
     7
 10
138.4153918359938
 20
230.55516310573259
 30
0.0
  0
VERTEX
  5
2CF
  8
1
  6
CONTINUOUS
 62
     7
 10
138.39570433599371
 20
230.57156935573261
 30
0.0
  0
VERTEX
  5
2D0
  8
1
  6
CONTINUOUS
 62
     7
 10
138.37273558599369
 20
230.58469435573261
 30
0.0
  0
VERTEX
  5
2D1
  8
1
  6
CONTINUOUS
 62
     7
 10
138.34757933599369
 20
230.59672560573259
 30
0.0
  0
VERTEX
  5
2D2
  8
1
  6
CONTINUOUS
 62
     7
 10
138.31914183599369
 20
230.60547560573261
 30
0.0
  0
VERTEX
  5
2D3
  8
1
  6
CONTINUOUS
 62
     7
 10
138.28742308599379
 20
230.6131318557326
 30
0.0
  0
VERTEX
  5
2D4
  8
1
  6
CONTINUOUS
 62
     7
 10
138.25351683599371
 20
230.61860060573261
 30
0.0
  0
VERTEX
  5
2D5
  8
1
  6
CONTINUOUS
 62
     7
 10
138.2174230859938
 20
230.6218818557326
 30
0.0
  0
VERTEX
  5
2D6
  8
1
  6
CONTINUOUS
 62
     7
 10
138.17804808599371
 20
230.62297560573259
 30
0.0
  0
VERTEX
  5
2D7
  8
1
  6
CONTINUOUS
 62
     7
 10
137.71648558599381
 20
230.62297560573259
 30
0.0
  0
SEQEND
  5
2D8
  8
1
  6
CONTINUOUS
 62
     7
  0
CIRCLE
  5
133
  8
1
  6
CONTINUOUS
 62
     7
 10
138.0751501367034
 20
230.1350316884301
 30
0.0
 40
1.1999999999999991
  0
INSERT
  5
134
  8
CONSTRUCTION
  6
CONTINUOUS
 62
     7
  2
*U4
 10
0.0
 20
0.0
 30
0.0
1001
ACAD
1002
{
1000
R14_HATCH_DATA
1000
134
1011
1.0
1021
0.0
1031
0.0
1021
0.0
1031
0.0
1011
0.0
1021
0.0
1031
0.0
1021
1.0
1031
0.0
1011
0.0
1021
0.0
1031
0.0
1021
0.0
1031
1.0
1040
0.0
1010
0.0
1020
0.0
1030
1.0
1000
SOLID
1070
     1
1070
     0
1071
        1
1071
        3
1070
     0
1070
     1
1071
       10
1040
116.8099554907982
1040
226.4304382547032
1040
117.49088272231219
1040
226.4304382547032
1040
117.49088272231219
1040
227.7197153742822
1040
119.9119573232507
1040
227.7197153742822
1040
119.9119573232507
1040
228.05575036821509
1040
117.49088272231219
1040
228.05575036821509
1040
117.49088272231219
1040
228.93355606665179
1040
120.2902502296473
1040
228.93355606665179
1040
120.2902502296473
1040
229.2695910605847
1040
116.8099554907982
1040
229.2695910605847
1071
        0
1070
     0
1070
     1
1071
        1
1040
0.0
1040
0.0
1040
0.0
1002
}
  0
INSERT
  5
135
  8
CONSTRUCTION
  6
CONTINUOUS
 62
     7
  2
*U5
 10
0.0
 20
0.0
 30
0.0
1001
ACAD
1002
{
1000
R14_HATCH_DATA
1000
135
1011
1.0
1021
0.0
1031
0.0
1021
0.0
1031
0.0
1011
0.0
1021
0.0
1031
0.0
1021
1.0
1031
0.0
1011
0.0
1021
0.0
1031
0.0
1021
0.0
1031
1.0
1040
0.0
1010
0.0
1020
0.0
1030
1.0
1000
SOLID
1070
     1
1070
     0
1071
        1
1071
        3
1070
     0
1070
     1
1071
        6
1040
120.81986029860261
1040
226.4304382547032
1040
124.04795976652061
1040
226.4304382547032
1040
124.04795976652061
1040
226.766473248636
1040
121.5007875301166
1040
226.766473248636
1040
121.5007875301166
1040
229.2695910605847
1040
120.81986029860261
1040
229.2695910605847
1071
        0
1070
     0
1070
     1
1071
        1
1040
0.0
1040
0.0
1040
0.0
1002
}
  0
INSERT
  5
136
  8
CONSTRUCTION
  6
CONTINUOUS
 62
     7
  2
*U6
 10
0.0
 20
0.0
 30
0.0
1001
ACAD
1002
{
1000
R14_HATCH_DATA
1000
136
1011
1.0
1021
0.0
1031
0.0
1021
0.0
1031
0.0
1011
0.0
1021
0.0
1031
0.0
1021
1.0
1031
0.0
1011
0.0
1021
0.0
1031
0.0
1021
0.0
1031
1.0
1040
0.0
1010
0.0
1020
0.0
1030
1.0
1000
SOLID
1070
     1
1070
     0
1071
        1
1071
        3
1070
     0
1070
     1
1071
       12
1040
124.5775698354759
1040
226.4304382547032
1040
128.4109379536286
1040
226.4304382547032
1040
128.4109379536286
1040
226.766473248636
1040
125.2584970669899
1040
226.766473248636
1040
125.2584970669899
1040
227.73343108832029
1040
128.10830362851129
1040
227.73343108832029
1040
128.10830362851129
1040
228.06946608225309
1040
125.2584970669899
1040
228.06946608225309
1040
125.2584970669899
1040
228.93355606665179
1040
128.2974500817096
1040
228.93355606665179
1040
128.2974500817096
1040
229.2695910605847
1040
124.5775698354759
1040
229.2695910605847
1071
        0
1070
     0
1070
     1
1071
        1
1040
0.0
1040
0.0
1040
0.0
1002
}
  0
INSERT
  5
137
  8
CONSTRUCTION
  6
CONTINUOUS
 62
     7
  2
*U7
 10
0.0
 20
0.0
 30
0.0
1001
ACAD
1002
{
1000
R14_HATCH_DATA
1000
137
1011
1.0
1021
0.0
1031
0.0
1021
0.0
1031
0.0
1011
0.0
1021
0.0
1031
0.0
1021
1.0
1031
0.0
1011
0.0
1021
0.0
1031
0.0
1021
0.0
1031
1.0
1040
0.0
1010
0.0
1020
0.0
1030
1.0
1000
SOLID
1070
     1
1070
     0
1071
        1
1071
        3
1070
     0
1070
     1
1071
       23
1040
132.69768968803939
1040
227.7352345276887
1040
132.54889480061399
1040
227.86033718300141
1040
132.35762805086719
1040
228.00811655635471
1040
132.12385359647379
1040
228.1900061832911
1040
130.50881171618221
1040
229.4061610706548
1040
129.17320611954889
1040
229.4001649497261
1040
132.12715109039331
1040
227.13812091334711
1040
128.80644324314801
1040
224.66496805756989
1040
130.18444901745221
1040
224.67115453154389
1040
132.3628968726731
1040
226.3273868315529
1040
132.44751801638881
1040
226.38493521535801
1040
132.53210331777939
1040
226.45391713470579
1040
132.6378170233549
1040
226.5458613016622
1040
132.76469497544079
1040
226.64933418068409
1040
133.12599254377361
1040
226.36511379299779
1040
135.3148705156309
1040
224.6941872500318
1040
136.7352764676059
1040
224.70056407705121
1040
133.48388509121159
1040
227.16707928188421
1040
136.4872367677788
1040
229.43300085004969
1040
135.19403134881651
1040
229.42719508216641
1040
133.50196689775379
1040
228.1618920506366
1040
133.14242560335609
1040
227.88586919672221
1040
132.8040485554688
1040
227.6213750548734
1071
        0
1070
     0
1070
     1
1071
        1
1040
0.0
1040
0.0
1040
0.0
1002
}
  0
INSERT
  5
138
  8
CONSTRUCTION
  6
CONTINUOUS
 62
     7
  2
*U8
 10
0.0
 20
0.0
 30
0.0
1001
ACAD
1002
{
1000
R14_HATCH_DATA
1000
138
1011
1.0
1021
0.0
1031
0.0
1021
0.0
1031
0.0
1011
0.0
1021
0.0
1031
0.0
1021
1.0
1031
0.0
1011
0.0
1021
0.0
1031
0.0
1021
0.0
1031
1.0
1040
0.0
1010
0.0
1020
0.0
1030
1.0
1000
SOLID
1070
     1
1070
     0
1071
        1
1071
        3
1070
     0
1070
     1
1071
       39
1040
137.71648558599381
1040
230.62297560573259
1040
137.71648558599381
1040
230.1351631057326
1040
138.16382933599371
1040
230.1351631057326
1040
138.19445433599381
1040
230.13735060573259
1040
138.22289183599381
1040
230.13844435573259
1040
138.24914183599381
1040
230.1417256057326
1040
138.27429808599371
1040
230.1461006057325
1040
138.2972668359937
1040
230.15047560573259
1040
138.31914183599369
1040
230.15594435573269
1040
138.33882933599369
1040
230.1625068557326
1040
138.35632933599371
1040
230.1701631057326
1040
138.3738293359938
1040
230.17891310573259
1040
138.3891418359938
1040
230.18766310573261
1040
138.40445433599379
1040
230.19860060573259
1040
138.43070433599371
1040
230.22266310573261
1040
138.45257933599379
1040
230.2511006057326
1040
138.4613293359937
1040
230.2664131057326
1040
138.46898558599369
1040
230.28281935573261
1040
138.47554808599381
1040
230.29813185573261
1040
138.48101683599381
1040
230.31453810573259
1040
138.48539183599371
1040
230.33094435573261
1040
138.4886730859937
1040
230.3484443557326
1040
138.49086058599369
1040
230.38344435573259
1040
138.48976683599381
1040
230.4086006057326
1040
138.48648558599371
1040
230.43375685573261
1040
138.4799230859937
1040
230.4567256057326
1040
138.47226683599371
1040
230.47860060573259
1040
138.4613293359937
1040
230.49938185573259
1040
138.44820433599369
1040
230.5190693557326
1040
138.4328918359937
1040
230.53766310573261
1040
138.4153918359938
1040
230.55516310573259
1040
138.39570433599371
1040
230.57156935573261
1040
138.37273558599369
1040
230.58469435573261
1040
138.34757933599369
1040
230.59672560573259
1040
138.31914183599369
1040
230.60547560573261
1040
138.28742308599379
1040
230.6131318557326
1040
138.25351683599371
1040
230.61860060573261
1040
138.2174230859938
1040
230.6218818557326
1040
138.17804808599371
1040
230.62297560573259
1071
        0
1070
     0
1070
     1
1071
        1
1040
0.0
1040
0.0
1040
0.0
1002
}
  0
LINE
  5
139
  8
CONSTRUCTION
  6
CONTINUOUS
 62
     7
 10
15.0
 20
27.0
 30
0.0
 11
199.0
 21
27.0
 31
0.0
  0
ARC
  5
13A
  8
CONSTRUCTION
  6
CONTINUOUS
 62
     7
 10
71.5
 20
78.999999999999986
 30
0.0
 40
0.999999999999998
 50
180.0
 51
270.00000000000011
  0
ARC
  5
13B
  8
CONSTRUCTION
  6
CONTINUOUS
 62
     7
 10
71.5
 20
127.0
 30
0.0
 40
0.999999999999998
 50
90.0
 51
180.0
  0
ARC
  5
13C
  8
CONSTRUCTION
  6
CONTINUOUS
 62
     7
 10
166.5
 20
127.0
 30
0.0
 40
0.999999999999998
 50
0.0
 51
90.000000000000057
  0
ARC
  5
13D
  8
CONSTRUCTION
  6
CONTINUOUS
 62
     7
 10
166.5
 20
78.999999999999986
 30
0.0
 40
0.999999999999998
 50
270.0
 51
0.0000000000000799
  0
ARC
  5
13E
  8
CONSTRUCTION
  6
CONTINUOUS
 62
     7
 10
167.0
 20
188.0
 30
0.0
 40
0.999999999999998
 50
0.0000000000000509
 51
90.000000000000057
  0
TEXT
  5
13F
  8
CONSTRUCTION
  6
CONTINUOUS
 62
     7
 10
38.994290678930881
 20
54.999999999999993
 30
0.0
 40
3.9999999999999991
  1
14,5 mm
  7
ARIAL
 72
     1
 11
49.863322056829922
 21
56.999999999999993
 31
0.0
 73
     2
  0
LINE
  5
140
  8
CONSTRUCTION
  6
CONTINUOUS
 62
     7
 10
84.999999999999986
 20
65.0
 30
0.0
 11
84.999999999999986
 21
53.999999999999993
 31
0.0
  0
LINE
  5
141
  8
CONSTRUCTION
  6
CONTINUOUS
 62
     7
 10
70.5
 20
65.0
 30
0.0
 11
70.5
 21
53.999999999999993
 31
0.0
  0
LINE
  5
142
  8
CONSTRUCTION
  6
CONTINUOUS
 62
     7
 10
84.999999999999986
 20
56.999999999999993
 30
0.0
 11
90.999999999999986
 21
56.999999999999993
 31
0.0
  0
LINE
  5
143
  8
CONSTRUCTION
  6
CONTINUOUS
 62
     7
 10
70.5
 20
56.999999999999993
 30
0.0
 11
64.5
 21
56.999999999999993
 31
0.0
  0
INSERT
  5
144
  8
CONSTRUCTION
  6
CONTINUOUS
 62
     7
  2
LONGARROW
 10
84.999999999999986
 20
56.999999999999993
 30
0.0
 41
0.078740157480315
 42
0.078740157480315
  0
INSERT
  5
145
  8
CONSTRUCTION
  6
CONTINUOUS
 62
     7
  2
LONGARROW
 10
70.5
 20
56.999999999999993
 30
0.0
 41
0.078740157480315
 42
0.078740157480315
 50
180.0
  0
TEXT
  5
146
  8
CONSTRUCTION
  6
CONTINUOUS
 62
     7
 10
48.630968622100951
 20
95.999999999999986
 30
0.0
 40
3.9999999999999991
  1
9,50 mm
  7
ARIAL
 72
     1
 11
59.499999999999993
 21
97.999999999999986
 31
0.0
 73
     2
  0
LINE
  5
147
  8
CONSTRUCTION
  6
CONTINUOUS
 62
     7
 10
79.999999999999986
 20
96.0
 30
0.0
 11
79.999999999999986
 21
91.857142857142861
 31
0.0
  0
LINE
  5
148
  8
CONSTRUCTION
  6
CONTINUOUS
 62
     7
 10
70.5
 20
95.714285714285722
 30
0.0
 11
70.5
 21
91.857142857142861
 31
0.0
  0
LINE
  5
149
  8
CONSTRUCTION
  6
CONTINUOUS
 62
     7
 10
79.999999999999986
 20
94.857142857142847
 30
0.0
 11
85.999999999999986
 21
94.857142857142847
 31
0.0
  0
LINE
  5
14A
  8
CONSTRUCTION
  6
CONTINUOUS
 62
     7
 10
70.5
 20
94.857142857142847
 30
0.0
 11
64.5
 21
94.857142857142847
 31
0.0
  0
INSERT
  5
14B
  8
CONSTRUCTION
  6
CONTINUOUS
 62
     7
  2
LONGARROW
 10
79.999999999999986
 20
94.857142857142847
 30
0.0
 41
0.078740157480315
 42
0.078740157480315
  0
INSERT
  5
14C
  8
CONSTRUCTION
  6
CONTINUOUS
 62
     7
  2
LONGARROW
 10
70.5
 20
94.857142857142847
 30
0.0
 41
0.078740157480315
 42
0.078740157480315
 50
180.0
  0
INSERT
  5
154
  8
CONSTRUCTION
  6
CONTINUOUS
 62
     7
  2
CROSS
 10
84.999999999999986
 20
118.0
 30
0.0
 41
0.3149606299212598
 42
0.3149606299212598
  0
INSERT
  5
155
  8
CONSTRUCTION
  6
CONTINUOUS
 62
     7
  2
CROSS
 10
79.999999999999986
 20
103.0
 30
0.0
 41
0.3149606299212598
 42
0.3149606299212598
  0
LINE
  5
156
  8
CONSTRUCTION
  6
CONTINUOUS
 62
     7
 10
81.0
 20
88.0
 30
0.0
 11
89.0
 21
88.0
 31
0.0
  0
POLYLINE
  5
157
  8
CONSTRUCTION
  6
CONTINUOUS
 62
     7
 66
     1
 10
0.0
 20
0.0
 30
0.0
  0
VERTEX
  5
452
  8
CONSTRUCTION
  6
CONTINUOUS
 62
     7
 10
84.999999999999986
 20
91.999999999999986
 30
0.0
  0
VERTEX
  5
453
  8
CONSTRUCTION
  6
CONTINUOUS
 62
     7
 10
84.999999999999986
 20
83.999999999999986
 30
0.0
  0
SEQEND
  5
454
  8
CONSTRUCTION
  6
CONTINUOUS
 62
     7
  0
LINE
  5
158
  8
CONSTRUCTION
  6
CONTINUOUS
 62
     7
 10
149.0
 20
118.0
 30
0.0
 11
157.0
 21
118.0
 31
0.0
  0
POLYLINE
  5
159
  8
CONSTRUCTION
  6
CONTINUOUS
 62
     7
 66
     1
 10
0.0
 20
0.0
 30
0.0
  0
VERTEX
  5
455
  8
CONSTRUCTION
  6
CONTINUOUS
 62
     7
 10
153.0
 20
122.0
 30
0.0
  0
VERTEX
  5
456
  8
CONSTRUCTION
  6
CONTINUOUS
 62
     7
 10
153.0
 20
114.0
 30
0.0
  0
SEQEND
  5
457
  8
CONSTRUCTION
  6
CONTINUOUS
 62
     7
  0
POLYLINE
  5
15A
  8
CONSTRUCTION
  6
CONTINUOUS
 62
     7
 66
     1
 10
0.0
 20
0.0
 30
0.0
  0
VERTEX
  5
458
  8
CONSTRUCTION
  6
CONTINUOUS
 62
     7
 10
158.0
 20
107.0
 30
0.0
  0
VERTEX
  5
459
  8
CONSTRUCTION
  6
CONTINUOUS
 62
     7
 10
158.0
 20
98.999999999999986
 30
0.0
  0
SEQEND
  5
45A
  8
CONSTRUCTION
  6
CONTINUOUS
 62
     7
  0
POLYLINE
  5
15B
  8
CONSTRUCTION
  6
CONTINUOUS
 62
     7
 66
     1
 10
0.0
 20
0.0
 30
0.0
  0
VERTEX
  5
45B
  8
CONSTRUCTION
  6
CONTINUOUS
 62
     7
 10
153.5
 20
103.0
 30
0.0
  0
VERTEX
  5
45C
  8
CONSTRUCTION
  6
CONTINUOUS
 62
     7
 10
162.0
 20
103.0
 30
0.0
  0
SEQEND
  5
45D
  8
CONSTRUCTION
  6
CONTINUOUS
 62
     7
  0
LINE
  5
15C
  8
CONSTRUCTION
  6
CONTINUOUS
 62
     7
 10
153.0
 20
91.999999999999986
 30
0.0
 11
153.0
 21
83.999999999999986
 31
0.0
  0
POLYLINE
  5
15D
  8
CONSTRUCTION
  6
CONTINUOUS
 62
     7
 66
     1
 10
0.0
 20
0.0
 30
0.0
  0
VERTEX
  5
45E
  8
CONSTRUCTION
  6
CONTINUOUS
 62
     7
 10
149.0
 20
88.0
 30
0.0
  0
VERTEX
  5
45F
  8
CONSTRUCTION
  6
CONTINUOUS
 62
     7
 10
157.0
 20
88.0
 30
0.0
  0
SEQEND
  5
460
  8
CONSTRUCTION
  6
CONTINUOUS
 62
     7
  0
TEXT
  5
15E
  8
CONSTRUCTION
  6
CONTINUOUS
 62
     7
 10
162.24716972687571
 20
28.954269822841621
 30
0.0
 40
3.0
  1
Måttolerans +/-2mm
  7
ARIAL
  0
POLYLINE
  5
15F
  8
CONSTRUCTION
  6
CONTINUOUS
 62
     7
 66
     1
 10
0.0
 20
0.0
 30
0.0
  0
VERTEX
  5
461
  8
CONSTRUCTION
  6
CONTINUOUS
 62
     7
 10
185.5
 20
14.0
 30
0.0
  0
VERTEX
  5
462
  8
CONSTRUCTION
  6
CONTINUOUS
 62
     7
 10
143.99999999999989
 20
14.0
 30
0.0
  0
VERTEX
  5
463
  8
CONSTRUCTION
  6
CONTINUOUS
 62
     7
 10
143.99999999999989
 20
22.0
 30
0.0
  0
VERTEX
  5
464
  8
CONSTRUCTION
  6
CONTINUOUS
 62
     7
 10
185.5
 20
22.0
 30
0.0
  0
VERTEX
  5
465
  8
CONSTRUCTION
  6
CONTINUOUS
 62
     7
 10
185.5
 20
14.0
 30
0.0
  0
SEQEND
  5
466
  8
CONSTRUCTION
  6
CONTINUOUS
 62
     7
  0
ENDSEC
  0
EOF
